999
RFEM <-> DXF (C) ING.-SOFTWARE DLUBAL GMBH
0
SECTION
2
HEADER
9
$ACADVER
1
AC1015
9
$HANDSEED
5
FFFFFF
9
$UNITMODE
70
0
9
$INSUNITS
70
6
0
ENDSEC
0
SECTION
2
TABLES
0
TABLE
2
VPORT
5
8
100
AcDbSymbolTable
70
1
0
VPORT
5
30
100
AcDbSymbolTableRecord
100
AcDbViewportTableRecord
2
*Active
70
0
10
0.000000000000000
20
0.000000000000000
11
1.000000000000000
21
1.000000000000000
12
28.305555555555500
22
14.500000000000000
13
0.000000000000000
23
0.000000000000000
14
1.000000000000000
24
1.000000000000000
15
1.000000000000000
25
1.000000000000000
16
-1.000000000000000
26
-1.000000000000000
36
1.000000000000000
17
0.000000000000000
27
0.000000000000000
37
0.000000000000000
40
29.000000000000000
41
1.927983539094650
42
50.000000000000000
43
0.000000000000000
44
0.000000000000000
50
0.000000000000000
51
0.000000000000000
71
0
72
100
73
1
74
3
75
0
76
0
77
0
78
0
281
0
65
1
110
0.000000000000000
120
0.000000000000000
130
0.000000000000000
111
1.000000000000000
121
0.000000000000000
131
0.000000000000000
112
0.000000000000000
122
1.000000000000000
132
0.000000000000000
79
0
146
0.000000000000000
0
ENDTAB
0
TABLE
2
LTYPE
5
5
100
AcDbSymbolTable
70
2
0
LTYPE
5
14
100
AcDbSymbolTableRecord
100
AcDbLinetypeTableRecord
2
BYBLOCK
70
0
3

72
65
73
0
40
0.000000000000000
0
LTYPE
5
15
100
AcDbSymbolTableRecord
100
AcDbLinetypeTableRecord
2
BYLAYER
70
0
3

72
65
73
0
40
0.000000000000000
0
ENDTAB
0
TABLE
2
LAYER
5
2
100
AcDbSymbolTable
70
5
0
LAYER
5
10
100
AcDbSymbolTableRecord
100
AcDbLayerTableRecord
2
0
70
0
62
7
6
CONTINUOUS
370
0
390
F
0
LAYER
5
31
5
31
100
AcDbSymbolTableRecord
100
AcDbLayerTableRecord
2
DL_TOPOLOGY
70
0
62
7
6
CONTINUOUS
370
0
390
F
0
LAYER
5
32
5
32
100
AcDbSymbolTableRecord
100
AcDbLayerTableRecord
2
DL_NODAL_SUPPORT
70
0
62
3
6
CONTINUOUS
370
0
390
F
0
LAYER
5
33
5
33
100
AcDbSymbolTableRecord
100
AcDbLayerTableRecord
2
DL_LINE_SUPPORT
70
0
62
3
6
CONTINUOUS
370
0
390
F
0
LAYER
5
34
5
34
100
AcDbSymbolTableRecord
100
AcDbLayerTableRecord
2
DL_NODES
70
0
62
1
6
CONTINUOUS
370
0
390
F
0
ENDTAB
0
TABLE
2
STYLE
5
3
100
AcDbSymbolTable
70
2
0
STYLE
5
11
100
AcDbSymbolTableRecord
100
AcDbTextStyleTableRecord
2
STANDARD
70
0
40
0.000000000000000
41
1.000000000000000
50
0.000000000000000
71
0
42
0.000000000000000
3
TXT
4

0
STYLE
5
35
5
35
100
AcDbSymbolTableRecord
100
AcDbTextStyleTableRecord
2
COURIER
70
0
40
0.000000000000000
41
1.000000000000000
50
0.000000000000000
71
0
42
0.000000000000000
3
COUR.TTF
4

0
ENDTAB
0
TABLE
2
VIEW
5
6
100
AcDbSymbolTable
70
0
0
ENDTAB
0
TABLE
2
UCS
5
7
100
AcDbSymbolTable
70
0
0
ENDTAB
0
TABLE
2
APPID
5
9
100
AcDbSymbolTable
70
1
0
APPID
5
12
100
AcDbSymbolTableRecord
100
AcDbRegAppTableRecord
2
ACAD
70
0
0
ENDTAB
0
TABLE
2
DIMSTYLE
5
A
100
AcDbSymbolTable
70
1
100
AcDbDimStyleTable
71
0
0
DIMSTYLE
105
27
100
AcDbSymbolTableRecord
100
AcDbDimStyleTableRecord
2
Standard
41
2.500000000000000
42
0.625000000000000
43
3.750000000000000
44
1.250000000000000
70
0
73
0
74
0
77
1
78
8
140
2.500000000000000
141
2.500000000000000
143
0.039370078740160
147
0.625000000000000
171
3
172
1
271
2
272
2
274
3
278
44
283
0
284
8
340
11
0
ENDTAB
0
TABLE
2
BLOCK_RECORD
5
1
100
AcDbSymbolTable
70
1
0
BLOCK_RECORD
5
1F
100
AcDbSymbolTableRecord
100
AcDbBlockTableRecord
2
*Model_Space
340
22
0
BLOCK_RECORD
5
1B
100
AcDbSymbolTableRecord
100
AcDbBlockTableRecord
2
*Paper_Space
340
1E
0
BLOCK_RECORD
5
23
100
AcDbSymbolTableRecord
100
AcDbBlockTableRecord
2
*Paper_Space0
340
26
0
ENDTAB
0
ENDSEC
0
SECTION
2
BLOCKS
0
BLOCK
5
20
100
AcDbEntity
8
0
100
AcDbBlockBegin
2
*Model_space
70
0
10
0.000000000000000
20
0.000000000000000
30
0.000000000000000
3
*Model_space
1

0
ENDBLK
5
21
100
AcDbEntity
8
0
100
AcDbBlockEnd
0
BLOCK
5
1C
100
AcDbEntity
67
1
8
0
100
AcDbBlockBegin
2
*Paper_space
70
0
10
0.000000000000000
20
0.000000000000000
30
0.000000000000000
3
*Paper_space
1

0
ENDBLK
5
1D
100
AcDbEntity
67
1
8
0
100
AcDbBlockEnd
0
BLOCK
5
24
100
AcDbEntity
8
0
100
AcDbBlockBegin
2
*Paper_space0
70
0
10
0.000000000000000
20
0.000000000000000
30
0.000000000000000
3
*Paper_space0
1

0
ENDBLK
5
25
100
AcDbEntity
8
0
100
AcDbBlockEnd
0
ENDSEC
0
SECTION
2
ENTITIES
0
POINT
5
36
100
AcDbEntity
100
AcDbPoint
8
DL_TOPOLOGY
39
0
10
5.000000000000000
20
17.000000000000000
30
0.000000000000000
0
POINT
5
37
100
AcDbEntity
100
AcDbPoint
8
DL_TOPOLOGY
39
0
10
10.000000000000000
20
17.000000000000000
30
0.000000000000000
0
POINT
5
38
100
AcDbEntity
100
AcDbPoint
8
DL_TOPOLOGY
39
0
10
15.000000000000000
20
17.000000000000000
30
0.000000000000000
0
POINT
5
39
100
AcDbEntity
100
AcDbPoint
8
DL_TOPOLOGY
39
0
10
20.000000000000000
20
17.000000000000000
30
0.000000000000000
0
POINT
5
3A
100
AcDbEntity
100
AcDbPoint
8
DL_TOPOLOGY
39
0
10
25.000000000000000
20
17.000000000000000
30
0.000000000000000
0
POINT
5
3B
100
AcDbEntity
100
AcDbPoint
8
DL_TOPOLOGY
39
0
10
10.000000000000000
20
12.000000000000000
30
0.000000000000000
0
POINT
5
3C
100
AcDbEntity
100
AcDbPoint
8
DL_TOPOLOGY
39
0
10
15.000000000000000
20
12.000000000000000
30
0.000000000000000
0
POINT
5
3D
100
AcDbEntity
100
AcDbPoint
8
DL_TOPOLOGY
39
0
10
20.000000000000000
20
12.000000000000000
30
0.000000000000000
0
POINT
5
3E
100
AcDbEntity
100
AcDbPoint
8
DL_TOPOLOGY
39
0
10
25.000000000000000
20
12.000000000000000
30
0.000000000000000
0
POINT
5
3F
100
AcDbEntity
100
AcDbPoint
8
DL_TOPOLOGY
39
0
10
5.000000000000000
20
12.000000000000000
30
0.000000000000000
0
POINT
5
40
100
AcDbEntity
100
AcDbPoint
8
DL_TOPOLOGY
39
0
10
15.000000000000000
20
5.000000000000000
30
0.000000000000000
0
POINT
5
41
100
AcDbEntity
100
AcDbPoint
8
DL_TOPOLOGY
39
0
10
20.000000000000000
20
5.000000000000000
30
0.000000000000000
0
POINT
5
42
100
AcDbEntity
100
AcDbPoint
8
DL_TOPOLOGY
39
0
10
15.000000000000000
20
0.000000000000000
30
0.000000000000000
0
POINT
5
43
100
AcDbEntity
100
AcDbPoint
8
DL_TOPOLOGY
39
0
10
20.000000000000000
20
0.000000000000000
30
0.000000000000000
0
LINE
5
44
100
AcDbEntity
100
AcDbLine
8
DL_TOPOLOGY
39
0
10
0.000000000000000
20
0.000000000000000
30
0.000000000000000
11
0.000000000000000
21
5.000000000000000
31
0.000000000000000
0
LINE
5
45
100
AcDbEntity
100
AcDbLine
8
DL_TOPOLOGY
39
0
10
0.000000000000000
20
12.000000000000000
30
0.000000000000000
11
0.000000000000000
21
17.000000000000000
31
0.000000000000000
0
LINE
5
46
100
AcDbEntity
100
AcDbLine
8
DL_TOPOLOGY
39
0
10
5.000000000000000
20
0.000000000000000
30
0.000000000000000
11
5.000000000000000
21
5.000000000000000
31
0.000000000000000
0
LINE
5
47
100
AcDbEntity
100
AcDbLine
8
DL_TOPOLOGY
39
0
10
10.000000000000000
20
0.000000000000000
30
0.000000000000000
11
10.000000000000000
21
5.000000000000000
31
0.000000000000000
0
LINE
5
48
100
AcDbEntity
100
AcDbLine
8
DL_TOPOLOGY
39
0
10
25.000000000000000
20
0.000000000000000
30
0.000000000000000
11
25.000000000000000
21
5.000000000000000
31
0.000000000000000
0
LINE
5
49
100
AcDbEntity
100
AcDbLine
8
DL_TOPOLOGY
39
0
10
5.000000000000000
20
5.000000000000000
30
0.000000000000000
11
7.500000000000000
21
5.000000000000000
31
0.000000000000000
0
LINE
5
4A
100
AcDbEntity
100
AcDbLine
8
DL_TOPOLOGY
39
0
10
5.200000000000000
20
12.199999999999999
30
0.000000000000000
11
5.200000000000000
21
11.800000000000001
31
0.000000000000000
0
LINE
5
4B
100
AcDbEntity
100
AcDbLine
8
DL_TOPOLOGY
39
0
10
5.200000000000000
20
11.800000000000001
30
0.000000000000000
11
4.800000000000000
21
11.800000000000001
31
0.000000000000000
0
LINE
5
4C
100
AcDbEntity
100
AcDbLine
8
DL_TOPOLOGY
39
0
10
4.800000000000000
20
11.800000000000001
30
0.000000000000000
11
4.800000000000000
21
12.199999999999999
31
0.000000000000000
0
LINE
5
4D
100
AcDbEntity
100
AcDbLine
8
DL_TOPOLOGY
39
0
10
4.800000000000000
20
12.199999999999999
30
0.000000000000000
11
5.200000000000000
21
12.199999999999999
31
0.000000000000000
0
LINE
5
4E
100
AcDbEntity
100
AcDbLine
8
DL_TOPOLOGY
39
0
10
10.199999999999999
20
12.199999999999999
30
0.000000000000000
11
10.199999999999999
21
11.800000000000001
31
0.000000000000000
0
LINE
5
4F
100
AcDbEntity
100
AcDbLine
8
DL_TOPOLOGY
39
0
10
10.199999999999999
20
11.800000000000001
30
0.000000000000000
11
9.800000000000001
21
11.800000000000001
31
0.000000000000000
0
LINE
5
50
100
AcDbEntity
100
AcDbLine
8
DL_TOPOLOGY
39
0
10
9.800000000000001
20
11.800000000000001
30
0.000000000000000
11
9.800000000000001
21
12.199999999999999
31
0.000000000000000
0
LINE
5
51
100
AcDbEntity
100
AcDbLine
8
DL_TOPOLOGY
39
0
10
9.800000000000001
20
12.199999999999999
30
0.000000000000000
11
10.199999999999999
21
12.199999999999999
31
0.000000000000000
0
LINE
5
52
100
AcDbEntity
100
AcDbLine
8
DL_TOPOLOGY
39
0
10
15.199999999999999
20
12.199999999999999
30
0.000000000000000
11
15.199999999999999
21
11.800000000000001
31
0.000000000000000
0
LINE
5
53
100
AcDbEntity
100
AcDbLine
8
DL_TOPOLOGY
39
0
10
15.199999999999999
20
11.800000000000001
30
0.000000000000000
11
14.800000000000001
21
11.800000000000001
31
0.000000000000000
0
LINE
5
54
100
AcDbEntity
100
AcDbLine
8
DL_TOPOLOGY
39
0
10
14.800000000000001
20
11.800000000000001
30
0.000000000000000
11
14.800000000000001
21
12.199999999999999
31
0.000000000000000
0
LINE
5
55
100
AcDbEntity
100
AcDbLine
8
DL_TOPOLOGY
39
0
10
14.800000000000001
20
12.199999999999999
30
0.000000000000000
11
15.199999999999999
21
12.199999999999999
31
0.000000000000000
0
LINE
5
56
100
AcDbEntity
100
AcDbLine
8
DL_TOPOLOGY
39
0
10
20.199999999999999
20
12.199999999999999
30
0.000000000000000
11
20.199999999999999
21
11.800000000000001
31
0.000000000000000
0
LINE
5
57
100
AcDbEntity
100
AcDbLine
8
DL_TOPOLOGY
39
0
10
20.199999999999999
20
11.800000000000001
30
0.000000000000000
11
19.800000000000001
21
11.800000000000001
31
0.000000000000000
0
LINE
5
58
100
AcDbEntity
100
AcDbLine
8
DL_TOPOLOGY
39
0
10
19.800000000000001
20
11.800000000000001
30
0.000000000000000
11
19.800000000000001
21
12.199999999999999
31
0.000000000000000
0
LINE
5
59
100
AcDbEntity
100
AcDbLine
8
DL_TOPOLOGY
39
0
10
19.800000000000001
20
12.199999999999999
30
0.000000000000000
11
20.199999999999999
21
12.199999999999999
31
0.000000000000000
0
LINE
5
5A
100
AcDbEntity
100
AcDbLine
8
DL_TOPOLOGY
39
0
10
25.125000000000000
20
12.500000000000000
30
0.000000000000000
11
25.125000000000000
21
11.500000000000000
31
0.000000000000000
0
LINE
5
5B
100
AcDbEntity
100
AcDbLine
8
DL_TOPOLOGY
39
0
10
25.125000000000000
20
11.500000000000000
30
0.000000000000000
11
24.875000000000000
21
11.500000000000000
31
0.000000000000000
0
LINE
5
5C
100
AcDbEntity
100
AcDbLine
8
DL_TOPOLOGY
39
0
10
24.875000000000000
20
11.500000000000000
30
0.000000000000000
11
24.875000000000000
21
12.500000000000000
31
0.000000000000000
0
LINE
5
5D
100
AcDbEntity
100
AcDbLine
8
DL_TOPOLOGY
39
0
10
24.875000000000000
20
12.500000000000000
30
0.000000000000000
11
25.125000000000000
21
12.500000000000000
31
0.000000000000000
0
LINE
5
5E
100
AcDbEntity
100
AcDbLine
8
DL_TOPOLOGY
39
0
10
5.500000000000000
20
17.125000000000000
30
0.000000000000000
11
5.500000000000000
21
16.875000000000000
31
0.000000000000000
0
LINE
5
5F
100
AcDbEntity
100
AcDbLine
8
DL_TOPOLOGY
39
0
10
5.500000000000000
20
16.875000000000000
30
0.000000000000000
11
4.500000000000000
21
16.875000000000000
31
0.000000000000000
0
LINE
5
60
100
AcDbEntity
100
AcDbLine
8
DL_TOPOLOGY
39
0
10
4.500000000000000
20
16.875000000000000
30
0.000000000000000
11
4.500000000000000
21
17.125000000000000
31
0.000000000000000
0
LINE
5
61
100
AcDbEntity
100
AcDbLine
8
DL_TOPOLOGY
39
0
10
4.500000000000000
20
17.125000000000000
30
0.000000000000000
11
5.500000000000000
21
17.125000000000000
31
0.000000000000000
0
LINE
5
62
100
AcDbEntity
100
AcDbLine
8
DL_TOPOLOGY
39
0
10
10.500000000000000
20
17.125000000000000
30
0.000000000000000
11
10.500000000000000
21
16.875000000000000
31
0.000000000000000
0
LINE
5
63
100
AcDbEntity
100
AcDbLine
8
DL_TOPOLOGY
39
0
10
10.500000000000000
20
16.875000000000000
30
0.000000000000000
11
9.500000000000000
21
16.875000000000000
31
0.000000000000000
0
LINE
5
64
100
AcDbEntity
100
AcDbLine
8
DL_TOPOLOGY
39
0
10
9.500000000000000
20
16.875000000000000
30
0.000000000000000
11
9.500000000000000
21
17.125000000000000
31
0.000000000000000
0
LINE
5
65
100
AcDbEntity
100
AcDbLine
8
DL_TOPOLOGY
39
0
10
9.500000000000000
20
17.125000000000000
30
0.000000000000000
11
10.500000000000000
21
17.125000000000000
31
0.000000000000000
0
LINE
5
66
100
AcDbEntity
100
AcDbLine
8
DL_TOPOLOGY
39
0
10
15.500000000000000
20
17.125000000000000
30
0.000000000000000
11
15.500000000000000
21
16.875000000000000
31
0.000000000000000
0
LINE
5
67
100
AcDbEntity
100
AcDbLine
8
DL_TOPOLOGY
39
0
10
15.500000000000000
20
16.875000000000000
30
0.000000000000000
11
14.500000000000000
21
16.875000000000000
31
0.000000000000000
0
LINE
5
68
100
AcDbEntity
100
AcDbLine
8
DL_TOPOLOGY
39
0
10
14.500000000000000
20
16.875000000000000
30
0.000000000000000
11
14.500000000000000
21
17.125000000000000
31
0.000000000000000
0
LINE
5
69
100
AcDbEntity
100
AcDbLine
8
DL_TOPOLOGY
39
0
10
14.500000000000000
20
17.125000000000000
30
0.000000000000000
11
15.500000000000000
21
17.125000000000000
31
0.000000000000000
0
LINE
5
6A
100
AcDbEntity
100
AcDbLine
8
DL_TOPOLOGY
39
0
10
20.500000000000000
20
17.125000000000000
30
0.000000000000000
11
20.500000000000000
21
16.875000000000000
31
0.000000000000000
0
LINE
5
6B
100
AcDbEntity
100
AcDbLine
8
DL_TOPOLOGY
39
0
10
20.500000000000000
20
16.875000000000000
30
0.000000000000000
11
19.500000000000000
21
16.875000000000000
31
0.000000000000000
0
LINE
5
6C
100
AcDbEntity
100
AcDbLine
8
DL_TOPOLOGY
39
0
10
19.500000000000000
20
16.875000000000000
30
0.000000000000000
11
19.500000000000000
21
17.125000000000000
31
0.000000000000000
0
LINE
5
6D
100
AcDbEntity
100
AcDbLine
8
DL_TOPOLOGY
39
0
10
19.500000000000000
20
17.125000000000000
30
0.000000000000000
11
20.500000000000000
21
17.125000000000000
31
0.000000000000000
0
LINE
5
6E
100
AcDbEntity
100
AcDbLine
8
DL_TOPOLOGY
39
0
10
25.199999999999999
20
17.199999999999999
30
0.000000000000000
11
25.199999999999999
21
16.800000000000001
31
0.000000000000000
0
LINE
5
6F
100
AcDbEntity
100
AcDbLine
8
DL_TOPOLOGY
39
0
10
25.199999999999999
20
16.800000000000001
30
0.000000000000000
11
24.800000000000001
21
16.800000000000001
31
0.000000000000000
0
LINE
5
70
100
AcDbEntity
100
AcDbLine
8
DL_TOPOLOGY
39
0
10
24.800000000000001
20
16.800000000000001
30
0.000000000000000
11
24.800000000000001
21
17.199999999999999
31
0.000000000000000
0
LINE
5
71
100
AcDbEntity
100
AcDbLine
8
DL_TOPOLOGY
39
0
10
24.800000000000001
20
17.199999999999999
30
0.000000000000000
11
25.199999999999999
21
17.199999999999999
31
0.000000000000000
0
LINE
5
72
100
AcDbEntity
100
AcDbLine
8
DL_TOPOLOGY
39
0
10
15.199999999999999
20
5.199999999999999
30
0.000000000000000
11
15.199999999999999
21
4.800000000000001
31
0.000000000000000
0
LINE
5
73
100
AcDbEntity
100
AcDbLine
8
DL_TOPOLOGY
39
0
10
15.199999999999999
20
4.800000000000001
30
0.000000000000000
11
14.800000000000001
21
4.800000000000001
31
0.000000000000000
0
LINE
5
74
100
AcDbEntity
100
AcDbLine
8
DL_TOPOLOGY
39
0
10
14.800000000000001
20
4.800000000000001
30
0.000000000000000
11
14.800000000000001
21
5.199999999999999
31
0.000000000000000
0
LINE
5
75
100
AcDbEntity
100
AcDbLine
8
DL_TOPOLOGY
39
0
10
14.800000000000001
20
5.199999999999999
30
0.000000000000000
11
15.199999999999999
21
5.199999999999999
31
0.000000000000000
0
LINE
5
76
100
AcDbEntity
100
AcDbLine
8
DL_TOPOLOGY
39
0
10
20.199999999999999
20
5.199999999999999
30
0.000000000000000
11
20.199999999999999
21
4.800000000000001
31
0.000000000000000
0
LINE
5
77
100
AcDbEntity
100
AcDbLine
8
DL_TOPOLOGY
39
0
10
20.199999999999999
20
4.800000000000001
30
0.000000000000000
11
19.800000000000001
21
4.800000000000001
31
0.000000000000000
0
LINE
5
78
100
AcDbEntity
100
AcDbLine
8
DL_TOPOLOGY
39
0
10
19.800000000000001
20
4.800000000000001
30
0.000000000000000
11
19.800000000000001
21
5.199999999999999
31
0.000000000000000
0
LINE
5
79
100
AcDbEntity
100
AcDbLine
8
DL_TOPOLOGY
39
0
10
19.800000000000001
20
5.199999999999999
30
0.000000000000000
11
20.199999999999999
21
5.199999999999999
31
0.000000000000000
0
LINE
5
7A
100
AcDbEntity
100
AcDbLine
8
DL_TOPOLOGY
39
0
10
15.500000000000000
20
0.124999999999999
30
0.000000000000000
11
15.500000000000000
21
-0.124999999999999
31
0.000000000000000
0
LINE
5
7B
100
AcDbEntity
100
AcDbLine
8
DL_TOPOLOGY
39
0
10
15.500000000000000
20
-0.124999999999999
30
0.000000000000000
11
14.500000000000000
21
-0.124999999999999
31
0.000000000000000
0
LINE
5
7C
100
AcDbEntity
100
AcDbLine
8
DL_TOPOLOGY
39
0
10
14.500000000000000
20
-0.124999999999999
30
0.000000000000000
11
14.500000000000000
21
0.124999999999999
31
0.000000000000000
0
LINE
5
7D
100
AcDbEntity
100
AcDbLine
8
DL_TOPOLOGY
39
0
10
14.500000000000000
20
0.124999999999999
30
0.000000000000000
11
15.500000000000000
21
0.124999999999999
31
0.000000000000000
0
LINE
5
7E
100
AcDbEntity
100
AcDbLine
8
DL_TOPOLOGY
39
0
10
20.500000000000000
20
0.124999999999999
30
0.000000000000000
11
20.500000000000000
21
-0.124999999999999
31
0.000000000000000
0
LINE
5
7F
100
AcDbEntity
100
AcDbLine
8
DL_TOPOLOGY
39
0
10
20.500000000000000
20
-0.124999999999999
30
0.000000000000000
11
19.500000000000000
21
-0.124999999999999
31
0.000000000000000
0
LINE
5
80
100
AcDbEntity
100
AcDbLine
8
DL_TOPOLOGY
39
0
10
19.500000000000000
20
-0.124999999999999
30
0.000000000000000
11
19.500000000000000
21
0.124999999999999
31
0.000000000000000
0
LINE
5
81
100
AcDbEntity
100
AcDbLine
8
DL_TOPOLOGY
39
0
10
19.500000000000000
20
0.124999999999999
30
0.000000000000000
11
20.500000000000000
21
0.124999999999999
31
0.000000000000000
0
ENDSEC
0
SECTION
2
OBJECTS
0
DICTIONARY
5
C
100
AcDbDictionary
280
0
281
1
3
ACAD_GROUP
350
D
3
ACAD_LAYOUT
350
1A
3
ACAD_MLINESTYLE
350
17
3
ACAD_PLOTSETTINGS
350
19
3
ACAD_PLOTSTYLENAME
350
E
3
AcDbVariableDictionary
350
82
0
DICTIONARY
5
D
100
AcDbDictionary
280
0
281
1
0
ACDBDICTIONARYWDFLT
5
E
100
AcDbDictionary
281
1
3
Normal
350
F
100
AcDbDictionaryWithDefault
340
F
0
ACDBPLACEHOLDER
5
F
0
DICTIONARY
5
17
100
AcDbDictionary
280
0
281
1
3
Standard
350
18
0
MLINESTYLE
5
18
100
AcDbMlineStyle
2
STANDARD
70
0
3

62
256
51
90.000000000000000
52
90.000000000000000
71
2
49
0.500000000000000
62
256
6
BYLAYER
49
-0.500000000000000
62
256
6
BYLAYER
0
DICTIONARY
5
19
100
AcDbDictionary
280
0
281
1
0
DICTIONARY
5
1A
100
AcDbDictionary
281
1
3
Layout1
350
1E
3
Layout2
350
26
3
Model
350
22
0
LAYOUT
5
1E
100
AcDbPlotSettings
1

2
C:\Program Files\AutoCAD 2002\plotters\DWF ePlot (optimized for plotting).pc3
4

6

40
0.000000000000000
41
0.000000000000000
42
0.000000000000000
43
0.000000000000000
44
0.000000000000000
45
0.000000000000000
46
0.000000000000000
47
0.000000000000000
48
0.000000000000000
49
0.000000000000000
140
0.000000000000000
141
0.000000000000000
142
1.000000000000000
143
1.000000000000000
70
688
72
0
73
0
74
5
7

75
16
147
1.000000000000000
148
0.000000000000000
149
0.000000000000000
100
AcDbLayout
1
Layout1
70
1
71
1
10
0.000000000000000
20
0.000000000000000
11
420.000000000000000
21
297.000000000000000
12
0.000000000000000
22
0.000000000000000
32
0.000000000000000
14
100000000000000000000.000000000000000
24
100000000000000000000.000000000000000
34
100000000000000000000.000000000000000
15
-100000000000000000000.000000000000000
25
-100000000000000000000.000000000000000
35
-100000000000000000000.000000000000000
146
0.000000000000000
13
0.000000000000000
23
0.000000000000000
33
0.000000000000000
16
1.000000000000000
26
0.000000000000000
36
0.000000000000000
17
0.000000000000000
27
1.000000000000000
37
0.000000000000000
76
0
330
1B
0
LAYOUT
5
22
100
AcDbPlotSettings
1

2
C:\Program Files\AutoCAD 2002\plotters\DWF ePlot (optimized for plotting).pc3
4

6

40
0.000000000000000
41
0.000000000000000
42
0.000000000000000
43
0.000000000000000
44
0.000000000000000
45
0.000000000000000
46
0.000000000000000
47
0.000000000000000
48
0.000000000000000
49
0.000000000000000
140
0.000000000000000
141
0.000000000000000
142
1.000000000000000
143
1.000000000000000
70
1712
72
0
73
0
74
0
7

75
0
147
1.000000000000000
148
0.000000000000000
149
0.000000000000000
100
AcDbLayout
1
Model
70
1
71
0
10
0.000000000000000
20
0.000000000000000
11
12.000000000000000
21
9.000000000000000
12
0.000000000000000
22
0.000000000000000
32
0.000000000000000
14
0.000000000000000
24
0.000000000000000
34
0.000000000000000
15
0.000000000000000
25
0.000000000000000
35
0.000000000000000
146
0.000000000000000
13
0.000000000000000
23
0.000000000000000
33
0.000000000000000
16
1.000000000000000
26
0.000000000000000
36
0.000000000000000
17
0.000000000000000
27
1.000000000000000
37
0.000000000000000
76
0
330
1F
0
LAYOUT
5
26
100
AcDbPlotSettings
1

2
C:\Program Files\AutoCAD 2002\plotters\DWF ePlot (optimized for plotting).pc3
4

6

40
0.000000000000000
41
0.000000000000000
42
0.000000000000000
43
0.000000000000000
44
0.000000000000000
45
0.000000000000000
46
0.000000000000000
47
0.000000000000000
48
0.000000000000000
49
0.000000000000000
140
0.000000000000000
141
0.000000000000000
142
1.000000000000000
143
1.000000000000000
70
688
72
0
73
0
74
5
7

75
16
147
1.000000000000000
148
0.000000000000000
149
0.000000000000000
100
AcDbLayout
1
Layout2
70
1
71
2
10
0.000000000000000
20
0.000000000000000
11
12.000000000000000
21
9.000000000000000
12
0.000000000000000
22
0.000000000000000
32
0.000000000000000
14
0.000000000000000
24
0.000000000000000
34
0.000000000000000
15
0.000000000000000
25
0.000000000000000
35
0.000000000000000
146
0.000000000000000
13
0.000000000000000
23
0.000000000000000
33
0.000000000000000
16
1.000000000000000
26
0.000000000000000
36
0.000000000000000
17
0.000000000000000
27
1.000000000000000
37
0.000000000000000
76
0
330
23
0
DICTIONARY
5
82
100
AcDbDictionary
281
1
3
DIMASSOC
350
84
3
HIDETEXT
350
83
0
DICTIONARYVAR
5
83
100
DictionaryVariables
280
0
1
2
0
DICTIONARYVAR
5
84
100
DictionaryVariables
280
0
1
1
0
ENDSEC
0
EOF
