999
********************************************
999
*** DXF file produced by Open CASCADE 7.3
999
*** Date: 2024-04-09T15:33:23
999
********************************************
  0
SECTION
  2
HEADER
  9
$INSUNITS
 70
     6
  9
$ACADVER
  1
AC1014
  9
$HANDSEED
  5
648
  0
ENDSEC
  0
SECTION
  2
TABLES
  0
TABLE
  2
VIEW
  5
65
100
AcDbSymbolTable
 70
   0
  0
ENDTAB
  0
TABLE
  2
UCS
  5
66
100
AcDbSymbolTable
 70
   0
  0
ENDTAB
  0
TABLE
  2
APPID
  5
67
100
AcDbSymbolTable
 70
   0
  0
APPID
  5
68
100
AcDbSymbolTableRecord
100
AcDbRegAppTableRecord
  2
ACAD
 70
   0
  0
ENDTAB
  0
TABLE
  2
BLOCK_RECORD
  5
69
100
AcDbSymbolTable
 70
   0
  0
BLOCK_RECORD
  5
6A
100
AcDbSymbolTableRecord
100
AcDbBlockTableRecord
  2
*MODEL_SPACE
  0
BLOCK_RECORD
  5
6B
100
AcDbSymbolTableRecord
100
AcDbBlockTableRecord
  2
*PAPER_SPACE
  0
ENDTAB
  0
TABLE
  2
LTYPE
  5
6C
100
AcDbSymbolTable
 70
   0
  0
LTYPE
  5
6D
100
AcDbSymbolTableRecord
100
AcDbLinetypeTableRecord
  2
BYBLOCK
 70
   0
  3

 72
  65
 73
   0
 40
0.0
  0
LTYPE
  5
6E
100
AcDbSymbolTableRecord
100
AcDbLinetypeTableRecord
  2
BYLAYER
 70
   0
  3

 72
  65
 73
   0
 40
0.0
  0
LTYPE
  5
6F
100
AcDbSymbolTableRecord
100
AcDbLinetypeTableRecord
  2
CONTINUOUS
 70
   0
  3
Solid line
 72
  65
 73
   0
 40
0.0
  0
ENDTAB
  0
TABLE
  2
VPORT
  5
70
100
AcDbSymbolTable
 70
   0
  0
ENDTAB
  0
TABLE
  2
DIMSTYLE
  5
71
100
AcDbSymbolTable
 70
   0
  0
ENDTAB
  0
TABLE
  2
LAYER
  5
72
100
AcDbSymbolTable
 70
   0
  0
LAYER
  5
73
100
AcDbSymbolTableRecord
100
AcDbLayerTableRecord
  2
0
 70
   0
 62
   7
 61
   0
  6
CONTINUOUS
  0
LAYER
  5
287
100
AcDbSymbolTableRecord
100
AcDbLayerTableRecord
  2
(MATERIAL)S235JR
 70
   0
 62
   7
 61
   0
  6
CONTINUOUS
  0
LAYER
  5
288
100
AcDbSymbolTableRecord
100
AcDbLayerTableRecord
  2
(SECTION) $
 70
   0
 62
   7
 61
   0
  6
CONTINUOUS
  0
ENDTAB
  0
TABLE
  2
STYLE
  5
74
100
AcDbSymbolTable
 70
   0
  0
ENDTAB
  0
ENDSEC
  0
SECTION
  2
BLOCKS
  0
BLOCK
  5
75
100
AcDbEntity
100
AcDbBlockBegin
  2
*MODEL_SPACE
 70
   0
 10
0.0
 20
0.0
 30
0.0
  3
*MODEL_SPACE
  1

  0
ENDBLK
  5
76
100
AcDbEntity
100
AcDbBlockEnd
  0
BLOCK
  5
77
100
AcDbEntity
100
AcDbBlockBegin
  2
*PAPER_SPACE
 70
   0
 10
0.0
 20
0.0
 30
0.0
  3
*PAPER_SPACE
  1

  0
ENDBLK
  5
78
100
AcDbEntity
100
AcDbBlockEnd
  0
ENDSEC
  0
SECTION
  2
ENTITIES
  0
POINT
  5
79
100
AcDbEntity
  8
(SECTION) $
 62
   0
100
AcDbPoint
 10
0.0
 20
0.0
 30
0.0
  0
POINT
  5
7A
100
AcDbEntity
100
AcDbPoint
 10
9.19289321881345422582
 20
3.20710678118654701763
 30
-2.5
  0
POINT
  5
7B
100
AcDbEntity
100
AcDbPoint
 10
9.19289321881345600218
 20
3.2071067811865479058
 30
-6.0
  0
POINT
  5
7C
100
AcDbEntity
100
AcDbPoint
 10
9.82928932188134751868
 20
2.57071067811865461294
 30
-1.5
  0
POINT
  5
7D
100
AcDbEntity
100
AcDbPoint
 10
9.19289321881345422582
 20
3.20710678118654701763
 30
-3.5
  0
POINT
  5
7E
100
AcDbEntity
100
AcDbPoint
 10
9.09482741011653317287
 20
3.09304055552748202729
 30
-3.5
  0
POINT
  5
7F
100
AcDbEntity
100
AcDbPoint
 10
9.30695944447252010434
 20
3.30517258988346851467
 30
-3.5
  0
POINT
  5
80
100
AcDbEntity
100
AcDbPoint
 10
9.19289321881345422582
 20
3.20710678118654701763
 30
-3.79999999999999982236
  0
POINT
  5
81
100
AcDbEntity
100
AcDbPoint
 10
11.10000000000000142109
 20
1.29999999999999982236
 30
-3.5
  0
POINT
  5
82
100
AcDbEntity
100
AcDbPoint
 10
12.0
 20
5.0
 30
-3.5
  0
POINT
  5
83
100
AcDbEntity
100
AcDbPoint
 10
12.0
 20
0.0
 30
-3.5
  0
POINT
  5
84
100
AcDbEntity
100
AcDbPoint
 10
10.30000000000000071054
 20
5.0
 30
-3.5
  0
POINT
  5
85
100
AcDbEntity
100
AcDbPoint
 10
10.30000000000000071054
 20
0.0
 30
-3.5
  0
POINT
  5
86
100
AcDbEntity
100
AcDbPoint
 10
9.5
 20
5.0
 30
-3.5
  0
POINT
  5
87
100
AcDbEntity
100
AcDbPoint
 10
9.5
 20
0.0
 30
-3.5
  0
POINT
  5
88
100
AcDbEntity
100
AcDbPoint
 10
8.70000000000000106581
 20
5.0
 30
-3.5
  0
POINT
  5
89
100
AcDbEntity
100
AcDbPoint
 10
8.70000000000000106581
 20
0.0
 30
-3.5
  0
POINT
  5
8A
100
AcDbEntity
100
AcDbPoint
 10
6.0
 20
5.0
 30
-3.5
  0
POINT
  5
8B
100
AcDbEntity
100
AcDbPoint
 10
6.0
 20
0.0
 30
-3.5
  0
POINT
  5
8C
100
AcDbEntity
100
AcDbPoint
 10
11.10000000000000142109
 20
0.0
 30
-3.5
  0
POINT
  5
8D
100
AcDbEntity
100
AcDbPoint
 10
8.70000000000000106581
 20
1.29999999999999982236
 30
-3.5
  0
POINT
  5
8E
100
AcDbEntity
100
AcDbPoint
 10
10.30000000000000071054
 20
1.29999999999999982236
 30
-3.5
  0
POINT
  5
8F
100
AcDbEntity
100
AcDbPoint
 10
9.5
 20
1.29999999999999982236
 30
-3.5
  0
POINT
  5
90
100
AcDbEntity
100
AcDbPoint
 10
11.10000000000000142109
 20
3.70000000000000017764
 30
-3.5
  0
POINT
  5
91
100
AcDbEntity
100
AcDbPoint
 10
8.70000000000000106581
 20
3.70000000000000017764
 30
-3.5
  0
POINT
  5
92
100
AcDbEntity
100
AcDbPoint
 10
10.30000000000000071054
 20
3.70000000000000017764
 30
-3.5
  0
POINT
  5
93
100
AcDbEntity
100
AcDbPoint
 10
9.5
 20
3.70000000000000017764
 30
-3.5
  0
POINT
  5
94
100
AcDbEntity
100
AcDbPoint
 10
9.40294372515228893405
 20
1.29999999999999982236
 30
-3.5
  0
POINT
  5
95
100
AcDbEntity
100
AcDbPoint
 10
8.70000000000000106581
 20
2.00294372515228147336
 30
-3.5
  0
POINT
  5
96
100
AcDbEntity
100
AcDbPoint
 10
11.10000000000000142109
 20
2.00294372515228724652
 30
-3.5
  0
POINT
  5
97
100
AcDbEntity
100
AcDbPoint
 10
10.39705627484772065827
 20
1.29999999999999893419
 30
-3.5
  0
POINT
  5
98
100
AcDbEntity
100
AcDbPoint
 10
10.3970562748477153292
 20
3.70000000000000017764
 30
-3.5
  0
POINT
  5
99
100
AcDbEntity
100
AcDbPoint
 10
11.10000000000000319744
 20
2.99705627484771808255
 30
-3.5
  0
POINT
  5
9A
100
AcDbEntity
100
AcDbPoint
 10
8.70000000000000106581
 20
2.99705627484771319757
 30
-3.5
  0
POINT
  5
9B
100
AcDbEntity
100
AcDbPoint
 10
9.40294372515228360498
 20
3.70000000000000106581
 30
-3.5
  0
POINT
  5
9C
100
AcDbEntity
100
AcDbPoint
 10
12.0
 20
5.0
 30
0.0
  0
POINT
  5
9D
100
AcDbEntity
100
AcDbPoint
 10
12.0
 20
0.0
 30
0.0
  0
POINT
  5
9E
100
AcDbEntity
100
AcDbPoint
 10
6.0
 20
5.0
 30
0.0
  0
POINT
  5
9F
100
AcDbEntity
100
AcDbPoint
 10
6.0
 20
0.0
 30
0.0
  0
POINT
  5
A0
100
AcDbEntity
100
AcDbPoint
 10
12.0
 20
5.0
 30
-6.75
  0
POINT
  5
A1
100
AcDbEntity
100
AcDbPoint
 10
12.0
 20
0.0
 30
-7.0
  0
POINT
  5
A2
100
AcDbEntity
100
AcDbPoint
 10
6.0
 20
5.0
 30
-6.75
  0
POINT
  5
A3
100
AcDbEntity
100
AcDbPoint
 10
6.0
 20
0.0
 30
-7.0
  0
POINT
  5
A4
100
AcDbEntity
100
AcDbPoint
 10
8.98076118445749038699
 20
3.41923881554251307691
 30
-3.5
  0
POINT
  5
A5
100
AcDbEntity
100
AcDbPoint
 10
8.87469516727950669122
 20
3.31317279836452982522
 30
-3.5
  0
POINT
  5
A6
100
AcDbEntity
100
AcDbPoint
 10
9.08682720163547230641
 20
3.52530483272049455223
 30
-3.5
  0
POINT
  5
A7
100
AcDbEntity
100
AcDbPoint
 10
8.98076118445749038699
 20
3.41923881554251307691
 30
-3.54999999999999982236
  0
POINT
  5
A8
100
AcDbEntity
100
AcDbPoint
 10
9.15753787975412691935
 20
3.24246212024587521228
 30
-3.79999999999999982236
  0
POINT
  5
A9
100
AcDbEntity
100
AcDbPoint
 10
5.0
 20
5.0
 30
-3.5
  0
POINT
  5
AA
100
AcDbEntity
100
AcDbPoint
 10
5.0
 20
0.0
 30
-3.5
  0
POINT
  5
AB
100
AcDbEntity
100
AcDbPoint
 10
0.0
 20
5.0
 30
0.0
  0
POINT
  5
AC
100
AcDbEntity
100
AcDbPoint
 10
0.0
 20
0.0
 30
0.0
  0
POINT
  5
AD
100
AcDbEntity
100
AcDbPoint
 10
0.0
 20
5.0
 30
-6.75
  0
POINT
  5
AE
100
AcDbEntity
100
AcDbPoint
 10
0.0
 20
0.0
 30
-7.0
  0
POINT
  5
AF
100
AcDbEntity
100
AcDbPoint
 10
0.0
 20
5.0
 30
-3.5
  0
POINT
  5
B0
100
AcDbEntity
100
AcDbPoint
 10
0.0
 20
0.0
 30
-3.5
  0
POINT
  5
B1
100
AcDbEntity
100
AcDbPoint
 10
4.0
 20
5.0
 30
-3.5
  0
POINT
  5
B2
100
AcDbEntity
100
AcDbPoint
 10
4.0
 20
0.0
 30
-3.5
  0
POINT
  5
B3
100
AcDbEntity
100
AcDbPoint
 10
3.0
 20
5.0
 30
-3.5
  0
POINT
  5
B4
100
AcDbEntity
100
AcDbPoint
 10
3.0
 20
0.0
 30
-3.5
  0
POINT
  5
B5
100
AcDbEntity
100
AcDbPoint
 10
2.0
 20
5.0
 30
-3.5
  0
POINT
  5
B6
100
AcDbEntity
100
AcDbPoint
 10
2.0
 20
0.0
 30
-3.5
  0
POINT
  5
B7
100
AcDbEntity
100
AcDbPoint
 10
1.0
 20
5.0
 30
-3.5
  0
POINT
  5
B8
100
AcDbEntity
100
AcDbPoint
 10
1.0
 20
0.0
 30
-3.5
  0
POINT
  5
B9
100
AcDbEntity
100
AcDbPoint
 10
9.19289321881345422582
 20
1.7928932188134520942
 30
-3.5
  0
POINT
  5
BA
100
AcDbEntity
100
AcDbPoint
 10
9.30695944447252010434
 20
1.69482741011653059715
 30
-3.5
  0
POINT
  5
BB
100
AcDbEntity
100
AcDbPoint
 10
9.09482741011653317287
 20
1.90695944447251797271
 30
-3.5
  0
POINT
  5
BC
100
AcDbEntity
100
AcDbPoint
 10
9.19289321881345422582
 20
1.7928932188134520942
 30
-3.79999999999999982236
  0
POINT
  5
BD
100
AcDbEntity
100
AcDbPoint
 10
8.98076118445748861063
 20
1.58076118445748869945
 30
-3.5
  0
POINT
  5
BE
100
AcDbEntity
100
AcDbPoint
 10
9.08682720163547053005
 20
1.47469516727950633594
 30
-3.5
  0
POINT
  5
BF
100
AcDbEntity
100
AcDbPoint
 10
8.87469516727950669122
 20
1.686827201635471285
 30
-3.5
  0
POINT
  5
C0
100
AcDbEntity
100
AcDbPoint
 10
8.98076118445748861063
 20
1.58076118445748869945
 30
-3.54999999999999982236
  0
POINT
  5
C1
100
AcDbEntity
100
AcDbPoint
 10
9.15753787975412691935
 20
1.75753787975412478772
 30
-3.79999999999999982236
  0
POINT
  5
C2
100
AcDbEntity
100
AcDbPoint
 10
10.60710678118655003743
 20
1.79289321881345276033
 30
-3.5
  0
POINT
  5
C3
100
AcDbEntity
100
AcDbPoint
 10
10.70517258988346931403
 20
1.90695944447251664045
 30
-3.5
  0
POINT
  5
C4
100
AcDbEntity
100
AcDbPoint
 10
10.49304055552748415892
 20
1.69482741011653148533
 30
-3.5
  0
POINT
  5
C5
100
AcDbEntity
100
AcDbPoint
 10
10.60710678118655003743
 20
1.79289321881345276033
 30
-3.79999999999999982236
  0
POINT
  5
C6
100
AcDbEntity
100
AcDbPoint
 10
10.81923881554251387627
 20
1.58076118445748692309
 30
-3.5
  0
POINT
  5
C7
100
AcDbEntity
100
AcDbPoint
 10
10.92530483272049579568
 20
1.68682720163546950864
 30
-3.5
  0
POINT
  5
C8
100
AcDbEntity
100
AcDbPoint
 10
10.71317279836453195685
 20
1.47469516727950522572
 30
-3.5
  0
POINT
  5
C9
100
AcDbEntity
100
AcDbPoint
 10
10.81923881554251387627
 20
1.58076118445748692309
 30
-3.54999999999999982236
  0
POINT
  5
CA
100
AcDbEntity
100
AcDbPoint
 10
10.6424621202458773439
 20
1.75753787975412456568
 30
-3.79999999999999982236
  0
POINT
  5
CB
100
AcDbEntity
100
AcDbPoint
 10
10.60710678118655003743
 20
3.20710678118654834989
 30
-3.5
  0
POINT
  5
CC
100
AcDbEntity
100
AcDbPoint
 10
10.49304055552748415892
 20
3.30517258988346940285
 30
-3.5
  0
POINT
  5
CD
100
AcDbEntity
100
AcDbPoint
 10
10.70517258988346931403
 20
3.09304055552748202729
 30
-3.5
  0
POINT
  5
CE
100
AcDbEntity
100
AcDbPoint
 10
10.60710678118655003743
 20
3.20710678118654834989
 30
-3.79999999999999982236
  0
POINT
  5
CF
100
AcDbEntity
100
AcDbPoint
 10
10.81923881554251387627
 20
3.41923881554251174464
 30
-3.5
  0
POINT
  5
D0
100
AcDbEntity
100
AcDbPoint
 10
10.71317279836453195685
 20
3.52530483272049455223
 30
-3.5
  0
POINT
  5
D1
100
AcDbEntity
100
AcDbPoint
 10
10.92530483272049579568
 20
3.31317279836452938113
 30
-3.5
  0
POINT
  5
D2
100
AcDbEntity
100
AcDbPoint
 10
10.81923881554251387627
 20
3.41923881554251174464
 30
-3.54999999999999982236
  0
POINT
  5
D3
100
AcDbEntity
100
AcDbPoint
 10
10.6424621202458773439
 20
3.24246212024587521228
 30
-3.79999999999999982236
  0
POINT
  5
D4
100
AcDbEntity
100
AcDbPoint
 10
10.72377940008233210278
 20
3.42984541726031055831
 30
-3.5
  0
POINT
  5
D5
100
AcDbEntity
100
AcDbPoint
 10
10.74499260351792528922
 20
3.45105862069590729746
 30
-3.5
  0
POINT
  5
D6
100
AcDbEntity
100
AcDbPoint
 10
10.70256619664673358727
 20
3.45105862069590774155
 30
-3.5
  0
POINT
  5
D7
100
AcDbEntity
100
AcDbPoint
 10
10.70256619664673536363
 20
3.40863221382471426324
 30
-3.5
  0
POINT
  5
D8
100
AcDbEntity
100
AcDbPoint
 10
10.74499260351792884194
 20
3.40863221382471559551
 30
-3.5
  0
POINT
  5
D9
100
AcDbEntity
100
AcDbPoint
 10
10.60710678118654826108
 20
1.79289321881345165011
 30
-6.0
  0
POINT
  5
DA
100
AcDbEntity
100
AcDbPoint
 10
9.90000000000000213163
 20
2.5
 30
-6.29999999999999982236
  0
POINT
  5
DB
100
AcDbEntity
100
AcDbPoint
 10
6.90000000000000035527
 20
5.0
 30
-3.5
  0
POINT
  5
DC
100
AcDbEntity
100
AcDbPoint
 10
6.90000000000000035527
 20
0.0
 30
-3.5
  0
POINT
  5
DD
100
AcDbEntity
100
AcDbPoint
 10
7.79999999999999982236
 20
5.0
 30
-3.5
  0
POINT
  5
DE
100
AcDbEntity
100
AcDbPoint
 10
7.79999999999999982236
 20
0.0
 30
-3.5
  0
POINT
  5
DF
100
AcDbEntity
100
AcDbPoint
 10
11.10000000000000142109
 20
5.0
 30
-3.5
  0
POINT
  5
E0
100
AcDbEntity
100
AcDbPoint
 10
10.72978980772241719421
 20
3.435855824900396982
 30
-3.5
  0
POINT
  5
E1
100
AcDbEntity
100
AcDbPoint
 10
10.717768992442245235
 20
3.43585582490039564973
 30
-3.5
  0
POINT
  5
E2
100
AcDbEntity
100
AcDbPoint
 10
10.717768992442245235
 20
3.42383500962022502279
 30
-3.5
  0
POINT
  5
E3
100
AcDbEntity
100
AcDbPoint
 10
10.72978980772241897057
 20
3.42383500962022591096
 30
-3.50000000000000044409
  0
POINT
  5
E4
100
AcDbEntity
100
AcDbPoint
 10
10.71628241801456660198
 20
3.43385107074951800854
 30
-3.5
  0
POINT
  5
E5
100
AcDbEntity
100
AcDbPoint
 10
10.82984541726031224584
 20
3.32377940008232952707
 30
-3.5
  0
POINT
  5
E6
100
AcDbEntity
100
AcDbPoint
 10
10.851058620695908985
 20
3.34499260351792360169
 30
-3.5
  0
POINT
  5
E7
100
AcDbEntity
100
AcDbPoint
 10
10.851058620695908985
 20
3.30256619664673189973
 30
-3.5
  0
POINT
  5
E8
100
AcDbEntity
100
AcDbPoint
 10
10.80863221382471550669
 20
3.302566196646733232
 30
-3.5
  0
POINT
  5
E9
100
AcDbEntity
100
AcDbPoint
 10
10.80863221382471728305
 20
3.34499260351792671031
 30
-3.5
  0
POINT
  5
EA
100
AcDbEntity
100
AcDbPoint
 10
10.83585582490039911363
 20
3.32978980772241506259
 30
-3.5
  0
POINT
  5
EB
100
AcDbEntity
100
AcDbPoint
 10
10.83585582490039733727
 20
3.31776899244224399155
 30
-3.5
  0
POINT
  5
EC
100
AcDbEntity
100
AcDbPoint
 10
10.82383500962022537806
 20
3.31776899244224354746
 30
-3.5
  0
POINT
  5
ED
100
AcDbEntity
100
AcDbPoint
 10
10.82383500962022715441
 20
3.32978980772241550667
 30
-3.5
  0
POINT
  5
EE
100
AcDbEntity
100
AcDbPoint
 10
10.83385107074951925199
 20
3.31628241801456402627
 30
-3.5
  0
POINT
  5
EF
100
AcDbEntity
100
AcDbPoint
 10
10.6672108575874062808
 20
3.37327687476538473632
 30
-3.5
  0
POINT
  5
F0
100
AcDbEntity
100
AcDbPoint
 10
10.64599765415180954164
 20
3.35206367132979110579
 30
-3.5
  0
POINT
  5
F1
100
AcDbEntity
100
AcDbPoint
 10
10.64599765415180954164
 20
3.39449007820098236365
 30
-3.5
  0
POINT
  5
F2
100
AcDbEntity
100
AcDbPoint
 10
10.68842406102300301995
 20
3.39449007820098147548
 30
-3.5
  0
POINT
  5
F3
100
AcDbEntity
100
AcDbPoint
 10
10.6884240610230012436
 20
3.35206367132978799717
 30
-3.5
  0
POINT
  5
F4
100
AcDbEntity
100
AcDbPoint
 10
10.66120044994731941301
 20
3.36726646712529964489
 30
-3.5
  0
POINT
  5
F5
100
AcDbEntity
100
AcDbPoint
 10
10.66120044994732118937
 20
3.37928728240547027184
 30
-3.5
  0
POINT
  5
F6
100
AcDbEntity
100
AcDbPoint
 10
10.67322126522749314859
 20
3.37928728240547027184
 30
-3.5
  0
POINT
  5
F7
100
AcDbEntity
100
AcDbPoint
 10
10.67322126522749137223
 20
3.3672664671252992008
 30
-3.5
  0
POINT
  5
F8
100
AcDbEntity
100
AcDbPoint
 10
10.66320520409819927465
 20
3.38077385683315068121
 30
-3.5
  0
POINT
  5
F9
100
AcDbEntity
100
AcDbPoint
 10
10.77327687476538642386
 20
3.26721085758740370508
 30
-3.5
  0
POINT
  5
FA
100
AcDbEntity
100
AcDbPoint
 10
10.75206367132979323742
 20
3.24599765415180741002
 30
-3.5
  0
POINT
  5
FB
100
AcDbEntity
100
AcDbPoint
 10
10.79449007820098493937
 20
3.24599765415180696593
 30
-3.5
  0
POINT
  5
FC
100
AcDbEntity
100
AcDbPoint
 10
10.79449007820098316301
 20
3.28842406102300044424
 30
-3.5
  0
POINT
  5
FD
100
AcDbEntity
100
AcDbPoint
 10
10.75206367132978968471
 20
3.28842406102299911197
 30
-3.5
  0
POINT
  5
FE
100
AcDbEntity
100
AcDbPoint
 10
10.76726646712530133243
 20
3.26120044994731728139
 30
-3.5
  0
POINT
  5
FF
100
AcDbEntity
100
AcDbPoint
 10
10.77928728240547329165
 20
3.26120044994731816956
 30
-3.5
  0
POINT
  5
100
100
AcDbEntity
100
AcDbPoint
 10
10.77928728240547329165
 20
3.2732212652274892406
 30
-3.5
  0
POINT
  5
101
100
AcDbEntity
100
AcDbPoint
 10
10.76726646712530133243
 20
3.2732212652274892406
 30
-3.5
  0
POINT
  5
102
100
AcDbEntity
100
AcDbPoint
 10
10.78077385683315192466
 20
3.26320520409819625485
 30
-3.5
  0
POINT
  5
103
100
AcDbEntity
100
AcDbPoint
 10
8.97015458273969201741
 20
3.32377940008232997116
 30
-3.5
  0
POINT
  5
104
100
AcDbEntity
100
AcDbPoint
 10
8.94894137930409527826
 20
3.3449926035179231576
 30
-3.5
  0
POINT
  5
105
100
AcDbEntity
100
AcDbPoint
 10
8.9489413793040935019
 20
3.30256619664673234382
 30
-3.5
  0
POINT
  5
106
100
AcDbEntity
100
AcDbPoint
 10
8.99136778617528875657
 20
3.30256619664673278791
 30
-3.5
  0
POINT
  5
107
100
AcDbEntity
100
AcDbPoint
 10
8.99136778617528698021
 20
3.34499260351792582213
 30
-3.5
  0
POINT
  5
108
100
AcDbEntity
100
AcDbPoint
 10
8.96414417509960514963
 20
3.32978980772241506259
 30
-3.5
  0
POINT
  5
109
100
AcDbEntity
100
AcDbPoint
 10
8.96414417509960514963
 20
3.31776899244224399155
 30
-3.5
  0
POINT
  5
10A
100
AcDbEntity
100
AcDbPoint
 10
8.97616499037977710884
 20
3.31776899244224399155
 30
-3.5
  0
POINT
  5
10B
100
AcDbEntity
100
AcDbPoint
 10
8.97616499037977710884
 20
3.32978980772241550667
 30
-3.50000000000000044409
  0
POINT
  5
10C
100
AcDbEntity
100
AcDbPoint
 10
8.96614892925048501127
 20
3.31628241801456402627
 30
-3.5
  0
POINT
  5
10D
100
AcDbEntity
100
AcDbPoint
 10
9.07622059991767216047
 20
3.42984541726031100239
 30
-3.5
  0
POINT
  5
10E
100
AcDbEntity
100
AcDbPoint
 10
9.05500739648207897403
 20
3.45105862069590685337
 30
-3.5
  0
POINT
  5
10F
100
AcDbEntity
100
AcDbPoint
 10
9.09743380335326889963
 20
3.45105862069590818564
 30
-3.5
  0
POINT
  5
110
100
AcDbEntity
100
AcDbPoint
 10
9.09743380335326889963
 20
3.40863221382471381915
 30
-3.5
  0
POINT
  5
111
100
AcDbEntity
100
AcDbPoint
 10
9.05500739648207542132
 20
3.40863221382471515142
 30
-3.5
  0
POINT
  5
112
100
AcDbEntity
100
AcDbPoint
 10
9.07021019227758706904
 20
3.435855824900396982
 30
-3.5
  0
POINT
  5
113
100
AcDbEntity
100
AcDbPoint
 10
9.0822310075577572519
 20
3.43585582490039653791
 30
-3.5
  0
POINT
  5
114
100
AcDbEntity
100
AcDbPoint
 10
9.0822310075577572519
 20
3.42383500962022502279
 30
-3.5
  0
POINT
  5
115
100
AcDbEntity
100
AcDbPoint
 10
9.07021019227758706904
 20
3.42383500962022546688
 30
-3.5
  0
POINT
  5
116
100
AcDbEntity
100
AcDbPoint
 10
9.08371758198543766127
 20
3.43385107074951800854
 30
-3.5
  0
POINT
  5
117
100
AcDbEntity
100
AcDbPoint
 10
9.0267231252346178394
 20
3.26721085758740326099
 30
-3.5
  0
POINT
  5
118
100
AcDbEntity
100
AcDbPoint
 10
9.04793632867021102584
 20
3.24599765415180741002
 30
-3.5
  0
POINT
  5
119
100
AcDbEntity
100
AcDbPoint
 10
9.00550992179901932388
 20
3.24599765415180741002
 30
-3.5
  0
POINT
  5
11A
100
AcDbEntity
100
AcDbPoint
 10
9.00550992179902110024
 20
3.28842406102300088833
 30
-3.5
  0
POINT
  5
11B
100
AcDbEntity
100
AcDbPoint
 10
9.04793632867021457855
 20
3.28842406102299822379
 30
-3.5
  0
POINT
  5
11C
100
AcDbEntity
100
AcDbPoint
 10
9.03273353287470293083
 20
3.26120044994731728139
 30
-3.5
  0
POINT
  5
11D
100
AcDbEntity
100
AcDbPoint
 10
9.02071271759453097161
 20
3.26120044994731816956
 30
-3.5
  0
POINT
  5
11E
100
AcDbEntity
100
AcDbPoint
 10
9.02071271759453274797
 20
3.2732212652274892406
 30
-3.5
  0
POINT
  5
11F
100
AcDbEntity
100
AcDbPoint
 10
9.03273353287470293083
 20
3.27322126522748835242
 30
-3.5
  0
POINT
  5
120
100
AcDbEntity
100
AcDbPoint
 10
9.0192261431668523386
 20
3.26320520409819625485
 30
-3.5
  0
POINT
  5
121
100
AcDbEntity
100
AcDbPoint
 10
9.13278914241259798246
 20
3.37327687476538429223
 30
-3.5
  0
POINT
  5
122
100
AcDbEntity
100
AcDbPoint
 10
9.15400234584819472161
 20
3.35206367132979110579
 30
-3.5
  0
POINT
  5
123
100
AcDbEntity
100
AcDbPoint
 10
9.15400234584819472161
 20
3.39449007820098325183
 30
-3.5
  0
POINT
  5
124
100
AcDbEntity
100
AcDbPoint
 10
9.1115759389770012433
 20
3.39449007820098191957
 30
-3.5
  0
POINT
  5
125
100
AcDbEntity
100
AcDbPoint
 10
9.11157593897700479602
 20
3.35206367132978755308
 30
-3.5
  0
POINT
  5
126
100
AcDbEntity
100
AcDbPoint
 10
9.13879955005268485024
 20
3.3672664671252992008
 30
-3.5
  0
POINT
  5
127
100
AcDbEntity
100
AcDbPoint
 10
9.13879955005268307389
 20
3.37928728240547027184
 30
-3.5
  0
POINT
  5
128
100
AcDbEntity
100
AcDbPoint
 10
9.12677873477251289103
 20
3.37928728240547027184
 30
-3.5
  0
POINT
  5
129
100
AcDbEntity
100
AcDbPoint
 10
9.12677873477251289103
 20
3.36726646712529831262
 30
-3.5
  0
POINT
  5
12A
100
AcDbEntity
100
AcDbPoint
 10
9.1367947959018049886
 20
3.38077385683315068121
 30
-3.5
  0
POINT
  5
12B
100
AcDbEntity
100
AcDbPoint
 10
9.07622059991767216047
 20
1.57015458273968944169
 30
-3.5
  0
POINT
  5
12C
100
AcDbEntity
100
AcDbPoint
 10
9.05500739648207897403
 20
1.54894137930409270254
 30
-3.5
  0
POINT
  5
12D
100
AcDbEntity
100
AcDbPoint
 10
9.09743380335327067598
 20
1.54894137930409225845
 30
-3.5
  0
POINT
  5
12E
100
AcDbEntity
100
AcDbPoint
 10
9.09743380335326889963
 20
1.59136778617528595881
 30
-3.5
  0
POINT
  5
12F
100
AcDbEntity
100
AcDbPoint
 10
9.05500739648207542132
 20
1.59136778617528440449
 30
-3.5
  0
POINT
  5
130
100
AcDbEntity
100
AcDbPoint
 10
9.07021019227758706904
 20
1.56414417509960324004
 30
-3.5
  0
POINT
  5
131
100
AcDbEntity
100
AcDbPoint
 10
9.0822310075577572519
 20
1.56414417509960390618
 30
-3.5
  0
POINT
  5
132
100
AcDbEntity
100
AcDbPoint
 10
9.0822310075577572519
 20
1.57616499037977519926
 30
-3.5
  0
POINT
  5
133
100
AcDbEntity
100
AcDbPoint
 10
9.07021019227758706904
 20
1.57616499037977475517
 30
-3.50000000000000044409
  0
POINT
  5
134
100
AcDbEntity
100
AcDbPoint
 10
9.08371758198543766127
 20
1.56614892925048199146
 30
-3.5
  0
POINT
  5
135
100
AcDbEntity
100
AcDbPoint
 10
8.97015458273969201741
 20
1.67622059991767047293
 30
-3.5
  0
POINT
  5
136
100
AcDbEntity
100
AcDbPoint
 10
8.94894137930409527826
 20
1.65500739648207639831
 30
-3.5
  0
POINT
  5
137
100
AcDbEntity
100
AcDbPoint
 10
8.94894137930409527826
 20
1.69743380335326810027
 30
-3.5
  0
POINT
  5
138
100
AcDbEntity
100
AcDbPoint
 10
8.99136778617528875657
 20
1.69743380335326699004
 30
-3.5
  0
POINT
  5
139
100
AcDbEntity
100
AcDbPoint
 10
8.99136778617528698021
 20
1.65500739648207351173
 30
-3.5
  0
POINT
  5
13A
100
AcDbEntity
100
AcDbPoint
 10
8.96414417509960514963
 20
1.67021019227758515946
 30
-3.5
  0
POINT
  5
13B
100
AcDbEntity
100
AcDbPoint
 10
8.96414417509960692598
 20
1.68223100755775600845
 30
-3.5
  0
POINT
  5
13C
100
AcDbEntity
100
AcDbPoint
 10
8.97616499037977710884
 20
1.6822310075577562305
 30
-3.5
  0
POINT
  5
13D
100
AcDbEntity
100
AcDbPoint
 10
8.97616499037977710884
 20
1.67021019227758471537
 30
-3.5
  0
POINT
  5
13E
100
AcDbEntity
100
AcDbPoint
 10
8.96614892925048501127
 20
1.68371758198543597373
 30
-3.5
  0
POINT
  5
13F
100
AcDbEntity
100
AcDbPoint
 10
9.13278914241259798246
 20
1.62672312523461526368
 30
-3.5
  0
POINT
  5
140
100
AcDbEntity
100
AcDbPoint
 10
9.15400234584819472161
 20
1.64793632867020911625
 30
-3.5
  0
POINT
  5
141
100
AcDbEntity
100
AcDbPoint
 10
9.15400234584819472161
 20
1.60550992179901763635
 30
-3.5
  0
POINT
  5
142
100
AcDbEntity
100
AcDbPoint
 10
9.1115759389770012433
 20
1.60550992179901852452
 30
-3.5
  0
POINT
  5
143
100
AcDbEntity
100
AcDbPoint
 10
9.11157593897700301966
 20
1.64793632867021200283
 30
-3.5
  0
POINT
  5
144
100
AcDbEntity
100
AcDbPoint
 10
9.13879955005268485024
 20
1.63273353287470057715
 30
-3.5
  0
POINT
  5
145
100
AcDbEntity
100
AcDbPoint
 10
9.13879955005268307389
 20
1.62071271759452972816
 30
-3.5
  0
POINT
  5
146
100
AcDbEntity
100
AcDbPoint
 10
9.12677873477251289103
 20
1.62071271759452950612
 30
-3.5
  0
POINT
  5
147
100
AcDbEntity
100
AcDbPoint
 10
9.12677873477251289103
 20
1.6327335328747007992
 30
-3.5
  0
POINT
  5
148
100
AcDbEntity
100
AcDbPoint
 10
9.1367947959018049886
 20
1.61922614316684954083
 30
-3.5
  0
POINT
  5
149
100
AcDbEntity
100
AcDbPoint
 10
9.0267231252346178394
 20
1.73278914241259629492
 30
-3.5
  0
POINT
  5
14A
100
AcDbEntity
100
AcDbPoint
 10
9.04793632867021102584
 20
1.75400234584819281203
 30
-3.5
  0
POINT
  5
14B
100
AcDbEntity
100
AcDbPoint
 10
9.00550992179901932388
 20
1.75400234584819303407
 30
-3.5
  0
POINT
  5
14C
100
AcDbEntity
100
AcDbPoint
 10
9.00550992179902110024
 20
1.71157593897699955576
 30
-3.5
  0
POINT
  5
14D
100
AcDbEntity
100
AcDbPoint
 10
9.04793632867021457855
 20
1.71157593897700111008
 30
-3.5
  0
POINT
  5
14E
100
AcDbEntity
100
AcDbPoint
 10
9.03273353287470293083
 20
1.73879955005268227453
 30
-3.5
  0
POINT
  5
14F
100
AcDbEntity
100
AcDbPoint
 10
9.02071271759453097161
 20
1.73879955005268160839
 30
-3.5
  0
POINT
  5
150
100
AcDbEntity
100
AcDbPoint
 10
9.02071271759453274797
 20
1.72677873477251053735
 30
-3.5
  0
POINT
  5
151
100
AcDbEntity
100
AcDbPoint
 10
9.03273353287470293083
 20
1.72677873477251098144
 30
-3.5
  0
POINT
  5
152
100
AcDbEntity
100
AcDbPoint
 10
9.0192261431668523386
 20
1.73679479590180352311
 30
-3.5
  0
POINT
  5
153
100
AcDbEntity
100
AcDbPoint
 10
10.82984541726031224584
 20
1.67622059991767002884
 30
-3.5
  0
POINT
  5
154
100
AcDbEntity
100
AcDbPoint
 10
10.851058620695908985
 20
1.65500739648207639831
 30
-3.5
  0
POINT
  5
155
100
AcDbEntity
100
AcDbPoint
 10
10.85105862069591076136
 20
1.69743380335326743413
 30
-3.5
  0
POINT
  5
156
100
AcDbEntity
100
AcDbPoint
 10
10.80863221382471550669
 20
1.69743380335326721209
 30
-3.5
  0
POINT
  5
157
100
AcDbEntity
100
AcDbPoint
 10
10.80863221382471728305
 20
1.65500739648207395582
 30
-3.5
  0
POINT
  5
158
100
AcDbEntity
100
AcDbPoint
 10
10.83585582490039911363
 20
1.67021019227758449333
 30
-3.5
  0
POINT
  5
159
100
AcDbEntity
100
AcDbPoint
 10
10.83585582490039733727
 20
1.68223100755775534232
 30
-3.5
  0
POINT
  5
15A
100
AcDbEntity
100
AcDbPoint
 10
10.82383500962022537806
 20
1.68223100755775600845
 30
-3.5
  0
POINT
  5
15B
100
AcDbEntity
100
AcDbPoint
 10
10.82383500962022715441
 20
1.67021019227758449333
 30
-3.50000000000000044409
  0
POINT
  5
15C
100
AcDbEntity
100
AcDbPoint
 10
10.83385107074951925199
 20
1.68371758198543597373
 30
-3.5
  0
POINT
  5
15D
100
AcDbEntity
100
AcDbPoint
 10
10.72377940008233210278
 20
1.57015458273968899761
 30
-3.5
  0
POINT
  5
15E
100
AcDbEntity
100
AcDbPoint
 10
10.74499260351792528922
 20
1.54894137930409270254
 30
-3.5
  0
POINT
  5
15F
100
AcDbEntity
100
AcDbPoint
 10
10.70256619664673536363
 20
1.54894137930409181436
 30
-3.5
  0
POINT
  5
160
100
AcDbEntity
100
AcDbPoint
 10
10.70256619664673536363
 20
1.59136778617528618085
 30
-3.5
  0
POINT
  5
161
100
AcDbEntity
100
AcDbPoint
 10
10.74499260351792706558
 20
1.59136778617528484858
 30
-3.5
  0
POINT
  5
162
100
AcDbEntity
100
AcDbPoint
 10
10.72978980772241719421
 20
1.56414417509960279595
 30
-3.5
  0
POINT
  5
163
100
AcDbEntity
100
AcDbPoint
 10
10.71776899244224701135
 20
1.56414417509960346209
 30
-3.5
  0
POINT
  5
164
100
AcDbEntity
100
AcDbPoint
 10
10.717768992442245235
 20
1.57616499037977497721
 30
-3.5
  0
POINT
  5
165
100
AcDbEntity
100
AcDbPoint
 10
10.72978980772241719421
 20
1.57616499037977431108
 30
-3.5
  0
POINT
  5
166
100
AcDbEntity
100
AcDbPoint
 10
10.71628241801456660198
 20
1.56614892925048199146
 30
-3.5
  0
POINT
  5
167
100
AcDbEntity
100
AcDbPoint
 10
10.77327687476538642386
 20
1.73278914241259651696
 30
-3.5
  0
POINT
  5
168
100
AcDbEntity
100
AcDbPoint
 10
10.75206367132979323742
 20
1.75400234584819258998
 30
-3.5
  0
POINT
  5
169
100
AcDbEntity
100
AcDbPoint
 10
10.79449007820098493937
 20
1.75400234584819258998
 30
-3.5
  0
POINT
  5
16A
100
AcDbEntity
100
AcDbPoint
 10
10.79449007820098316301
 20
1.71157593897699911167
 30
-3.5
  0
POINT
  5
16B
100
AcDbEntity
100
AcDbPoint
 10
10.75206367132978968471
 20
1.71157593897700177621
 30
-3.5
  0
POINT
  5
16C
100
AcDbEntity
100
AcDbPoint
 10
10.76726646712530133243
 20
1.73879955005268249657
 30
-3.5
  0
POINT
  5
16D
100
AcDbEntity
100
AcDbPoint
 10
10.77928728240547329165
 20
1.73879955005268160839
 30
-3.5
  0
POINT
  5
16E
100
AcDbEntity
100
AcDbPoint
 10
10.77928728240547329165
 20
1.72677873477251053735
 30
-3.5
  0
POINT
  5
16F
100
AcDbEntity
100
AcDbPoint
 10
10.76726646712530133243
 20
1.72677873477251142553
 30
-3.5
  0
POINT
  5
170
100
AcDbEntity
100
AcDbPoint
 10
10.78077385683315192466
 20
1.73679479590180352311
 30
-3.5
  0
POINT
  5
171
100
AcDbEntity
100
AcDbPoint
 10
10.6672108575874062808
 20
1.62672312523461548572
 30
-3.5
  0
POINT
  5
172
100
AcDbEntity
100
AcDbPoint
 10
10.64599765415180954164
 20
1.64793632867020889421
 30
-3.5
  0
POINT
  5
173
100
AcDbEntity
100
AcDbPoint
 10
10.64599765415180954164
 20
1.60550992179901674817
 30
-3.5
  0
POINT
  5
174
100
AcDbEntity
100
AcDbPoint
 10
10.68842406102300301995
 20
1.60550992179901808043
 30
-3.5
  0
POINT
  5
175
100
AcDbEntity
100
AcDbPoint
 10
10.68842406102299946724
 20
1.64793632867021266897
 30
-3.5
  0
POINT
  5
176
100
AcDbEntity
100
AcDbPoint
 10
10.66120044994731941301
 20
1.6327335328747007992
 30
-3.5
  0
POINT
  5
177
100
AcDbEntity
100
AcDbPoint
 10
10.66120044994732118937
 20
1.62071271759452972816
 30
-3.5
  0
POINT
  5
178
100
AcDbEntity
100
AcDbPoint
 10
10.67322126522749314859
 20
1.62071271759452950612
 30
-3.5
  0
POINT
  5
179
100
AcDbEntity
100
AcDbPoint
 10
10.67322126522749137223
 20
1.63273353287470124329
 30
-3.5
  0
POINT
  5
17A
100
AcDbEntity
100
AcDbPoint
 10
10.66320520409819927465
 20
1.61922614316684954083
 30
-3.5
  0
CIRCLE
  5
17B
100
AcDbEntity
100
AcDbCircle
 10
9.90000000000000213163
 20
2.5
 30
-2.5
 40
0.99999999999999988898
  0
LINE
  5
17C
100
AcDbEntity
100
AcDbLine
 10
9.19289321881345422582
 20
3.20710678118654701763
 30
-2.5
 11
9.19289321881345422582
 21
3.20710678118654701763
 31
-3.5
  0
CIRCLE
  5
17D
100
AcDbEntity
100
AcDbCircle
 10
9.90000000000000213163
 20
2.5
 30
-6.0
 40
1.0
  0
LINE
  5
17E
100
AcDbEntity
100
AcDbLine
 10
9.19289321881345422582
 20
3.20710678118654701763
 30
-2.5
 11
9.82928932188134751868
 21
2.57071067811865461294
 31
-1.5
  0
CIRCLE
  5
17F
100
AcDbEntity
100
AcDbCircle
 10
9.90000000000000213163
 20
2.5
 30
-1.5
 40
0.09999999999999979738
  0
ARC
  5
180
100
AcDbEntity
100
AcDbCircle
 10
9.89999999999955093699
 20
2.5000000000003992362
 30
-3.5
 40
0.99999999999939870321
100
AcDbArc
 50
134.99999999999792521521
 51
143.62692655868266911057
  0
LINE
  5
181
100
AcDbEntity
100
AcDbLine
 10
9.19289321881345422582
 20
3.20710678118654701763
 30
-3.5
 11
9.19289321881345422582
 21
3.20710678118654701763
 31
-3.79999999999999982236
  0
LINE
  5
182
100
AcDbEntity
100
AcDbLine
 10
9.19289321881345422582
 20
3.20710678118654701763
 30
-3.79999999999999982236
 11
9.19289321881345600218
 21
3.2071067811865479058
 31
-6.0
  0
ARC
  5
183
100
AcDbEntity
100
AcDbCircle
 10
9.89999999999999857891
 20
2.49999999999999467093
 30
-3.5
 40
0.99999999999999944489
100
AcDbArc
 50
143.62692655867923008373
 51
486.37307344132005937354
  0
ARC
  5
184
100
AcDbEntity
100
AcDbCircle
 10
9.89999999999922053462
 20
2.50000000000089350749
 30
-3.5
 40
0.99999999999881550306
100
AcDbArc
 50
126.37307344131474451387
 51
135.00000000000457589522
  0
LINE
  5
185
100
AcDbEntity
100
AcDbLine
 10
12.0
 20
0.0
 30
-3.5
 11
12.0
 21
5.0
 31
-3.5
  0
LINE
  5
186
100
AcDbEntity
100
AcDbLine
 10
12.0
 20
5.0
 30
-3.5
 11
6.0
 21
5.0
 31
-3.5
  0
LINE
  5
187
100
AcDbEntity
100
AcDbLine
 10
10.30000000000000071054
 20
0.0
 30
-3.5
 11
10.30000000000000071054
 21
1.29999999999999982236
 31
-3.5
  0
LINE
  5
188
100
AcDbEntity
100
AcDbLine
 10
9.5
 20
0.0
 30
-3.5
 11
9.5
 21
1.29999999999999982236
 31
-3.5
  0
LINE
  5
189
100
AcDbEntity
100
AcDbLine
 10
8.70000000000000106581
 20
0.0
 30
-3.5
 11
8.70000000000000106581
 21
1.29999999999999982236
 31
-3.5
  0
LINE
  5
18A
100
AcDbEntity
100
AcDbLine
 10
6.0
 20
0.0
 30
-3.5
 11
6.0
 21
5.0
 31
-3.5
  0
LINE
  5
18B
100
AcDbEntity
100
AcDbLine
 10
11.10000000000000142109
 20
0.0
 30
-3.5
 11
11.10000000000000142109
 21
1.29999999999999982236
 31
-3.5
  0
LINE
  5
18C
100
AcDbEntity
100
AcDbLine
 10
8.70000000000000106581
 20
1.29999999999999982236
 30
-3.5
 11
9.5
 21
1.29999999999999982236
 31
-3.5
  0
LINE
  5
18D
100
AcDbEntity
100
AcDbLine
 10
8.70000000000000106581
 20
1.29999999999999982236
 30
-3.5
 11
8.70000000000000106581
 21
2.00294372515228147336
 31
-3.5
  0
LINE
  5
18E
100
AcDbEntity
100
AcDbLine
 10
11.10000000000000142109
 20
1.29999999999999982236
 30
-3.5
 11
11.10000000000000142109
 21
3.70000000000000017764
 31
-3.5
  0
LINE
  5
18F
100
AcDbEntity
100
AcDbLine
 10
9.5
 20
1.29999999999999982236
 30
-3.5
 11
10.30000000000000071054
 21
1.29999999999999982236
 31
-3.5
  0
LINE
  5
190
100
AcDbEntity
100
AcDbLine
 10
10.30000000000000071054
 20
1.29999999999999982236
 30
-3.5
 11
11.10000000000000142109
 21
1.29999999999999982236
 31
-3.5
  0
LINE
  5
191
100
AcDbEntity
100
AcDbLine
 10
9.5
 20
3.70000000000000017764
 30
-3.5
 11
8.70000000000000106581
 21
3.70000000000000017764
 31
-3.5
  0
LINE
  5
192
100
AcDbEntity
100
AcDbLine
 10
10.30000000000000071054
 20
3.70000000000000017764
 30
-3.5
 11
9.5
 21
3.70000000000000017764
 31
-3.5
  0
LINE
  5
193
100
AcDbEntity
100
AcDbLine
 10
11.10000000000000142109
 20
3.70000000000000017764
 30
-3.5
 11
10.30000000000000071054
 21
3.70000000000000017764
 31
-3.5
  0
LINE
  5
194
100
AcDbEntity
100
AcDbLine
 10
10.30000000000000071054
 20
3.70000000000000017764
 30
-3.5
 11
10.30000000000000071054
 21
5.0
 31
-3.5
  0
LINE
  5
195
100
AcDbEntity
100
AcDbLine
 10
9.5
 20
3.70000000000000017764
 30
-3.5
 11
9.5
 21
5.0
 31
-3.5
  0
LINE
  5
196
100
AcDbEntity
100
AcDbLine
 10
8.70000000000000106581
 20
3.70000000000000017764
 30
-3.5
 11
8.70000000000000106581
 21
5.0
 31
-3.5
  0
LINE
  5
197
100
AcDbEntity
100
AcDbLine
 10
8.70000000000000106581
 20
2.00294372515228147336
 30
-3.5
 11
8.70000000000000106581
 21
3.70000000000000017764
 31
-3.5
  0
LINE
  5
198
100
AcDbEntity
100
AcDbLine
 10
8.70000000000000106581
 20
2.00294372515228147336
 30
-3.5
 11
9.40294372515228893405
 21
1.29999999999999982236
 31
-3.5
  0
LINE
  5
199
100
AcDbEntity
100
AcDbLine
 10
10.39705627484772065827
 20
1.29999999999999893419
 30
-3.5
 11
11.10000000000000142109
 21
2.00294372515228724652
 31
-3.5
  0
LINE
  5
19A
100
AcDbEntity
100
AcDbLine
 10
11.10000000000000319744
 20
2.99705627484771808255
 30
-3.5
 11
10.3970562748477153292
 21
3.70000000000000017764
 31
-3.5
  0
LINE
  5
19B
100
AcDbEntity
100
AcDbLine
 10
9.40294372515228360498
 20
3.70000000000000106581
 30
-3.5
 11
8.70000000000000106581
 21
2.99705627484771319757
 31
-3.5
  0
LINE
  5
19C
100
AcDbEntity
100
AcDbLine
 10
12.0
 20
5.0
 30
-3.5
 11
12.0
 21
5.0
 31
0.0
  0
LINE
  5
19D
100
AcDbEntity
100
AcDbLine
 10
12.0
 20
0.0
 30
-3.5
 11
12.0
 21
0.0
 31
0.0
  0
LINE
  5
19E
100
AcDbEntity
100
AcDbLine
 10
6.0
 20
5.0
 30
-3.5
 11
6.0
 21
5.0
 31
0.0
  0
LINE
  5
19F
100
AcDbEntity
100
AcDbLine
 10
6.0
 20
0.0
 30
-3.5
 11
6.0
 21
0.0
 31
0.0
  0
LINE
  5
1A0
100
AcDbEntity
100
AcDbLine
 10
12.0
 20
5.0
 30
-6.75
 11
12.0
 21
5.0
 31
-3.5
  0
LINE
  5
1A1
100
AcDbEntity
100
AcDbLine
 10
12.0
 20
0.0
 30
-7.0
 11
12.0
 21
0.0
 31
-3.5
  0
LINE
  5
1A2
100
AcDbEntity
100
AcDbLine
 10
6.0
 20
5.0
 30
-6.75
 11
6.0
 21
5.0
 31
-3.5
  0
LINE
  5
1A3
100
AcDbEntity
100
AcDbLine
 10
6.0
 20
0.0
 30
-7.0
 11
6.0
 21
0.0
 31
-3.5
  0
LINE
  5
1A4
100
AcDbEntity
100
AcDbLine
 10
12.0
 20
5.0
 30
-6.75
 11
12.0
 21
-0.00000000000000088818
 31
-7.0
  0
LINE
  5
1A5
100
AcDbEntity
100
AcDbLine
 10
6.0
 20
5.0
 30
-6.75
 11
6.0
 21
-0.00000000000000088818
 31
-7.0
  0
LINE
  5
1A6
100
AcDbEntity
100
AcDbLine
 10
6.0
 20
0.0
 30
-7.0
 11
12.0
 21
0.0
 31
-7.0
  0
LINE
  5
1A7
100
AcDbEntity
100
AcDbLine
 10
6.0
 20
5.0
 30
-6.75
 11
12.0
 21
5.0
 31
-6.75
  0
LINE
  5
1A8
100
AcDbEntity
100
AcDbLine
 10
9.19289321881345422582
 20
3.20710678118654701763
 30
-3.5
 11
8.98076118445749038699
 21
3.41923881554251307691
 31
-3.5
  0
LINE
  5
1A9
100
AcDbEntity
100
AcDbLine
 10
9.09482741011653317287
 20
3.09304055552748202729
 30
-3.5
 11
8.87469516727950669122
 21
3.31317279836452982522
 31
-3.5
  0
LINE
  5
1AA
100
AcDbEntity
100
AcDbLine
 10
8.87469516727950669122
 20
3.31317279836452982522
 30
-3.5
 11
8.98076118445749038699
 21
3.41923881554251307691
 31
-3.5
  0
LINE
  5
1AB
100
AcDbEntity
100
AcDbLine
 10
9.08682720163547230641
 20
3.52530483272049455223
 30
-3.5
 11
9.30695944447252010434
 21
3.30517258988346851467
 31
-3.5
  0
LINE
  5
1AC
100
AcDbEntity
100
AcDbLine
 10
8.98076118445749038699
 20
3.41923881554251307691
 30
-3.5
 11
9.08682720163547230641
 21
3.52530483272049455223
 31
-3.5
  0
LINE
  5
1AD
100
AcDbEntity
100
AcDbLine
 10
8.98076118445749038699
 20
3.41923881554251307691
 30
-3.5
 11
8.98076118445749038699
 21
3.41923881554251307691
 31
-3.54999999999999982236
  0
LINE
  5
1AE
100
AcDbEntity
100
AcDbLine
 10
9.19289321881345422582
 20
3.20710678118654701763
 30
-3.79999999999999982236
 11
9.15753787975412691935
 21
3.24246212024587521228
 31
-3.79999999999999982236
  0
LINE
  5
1AF
100
AcDbEntity
100
AcDbLine
 10
9.15753787975412691935
 20
3.24246212024587521228
 30
-3.79999999999999982236
 11
8.98076118445749038699
 21
3.41923881554251307691
 31
-3.54999999999999982236
  0
LINE
  5
1B0
100
AcDbEntity
100
AcDbLine
 10
5.0
 20
0.0
 30
-3.5
 11
5.0
 21
5.0
 31
-3.5
  0
LINE
  5
1B1
100
AcDbEntity
100
AcDbLine
 10
0.0
 20
0.0
 30
-3.5
 11
1.0
 21
0.0
 31
-3.5
  0
LINE
  5
1B2
100
AcDbEntity
100
AcDbLine
 10
5.0
 20
0.0
 30
-3.5
 11
6.0
 21
0.0
 31
-3.5
  0
LINE
  5
1B3
100
AcDbEntity
100
AcDbLine
 10
6.0
 20
5.0
 30
-3.5
 11
5.0
 21
5.0
 31
-3.5
  0
LINE
  5
1B4
100
AcDbEntity
100
AcDbLine
 10
5.0
 20
5.0
 30
-3.5
 11
4.0
 21
5.0
 31
-3.5
  0
LINE
  5
1B5
100
AcDbEntity
100
AcDbLine
 10
0.0
 20
5.0
 30
-3.5
 11
0.0
 21
5.0
 31
0.0
  0
LINE
  5
1B6
100
AcDbEntity
100
AcDbLine
 10
0.0
 20
0.0
 30
-3.5
 11
0.0
 21
0.0
 31
0.0
  0
LINE
  5
1B7
100
AcDbEntity
100
AcDbLine
 10
0.0
 20
5.0
 30
-6.75
 11
0.0
 21
5.0
 31
-3.5
  0
LINE
  5
1B8
100
AcDbEntity
100
AcDbLine
 10
0.0
 20
0.0
 30
-7.0
 11
0.0
 21
0.0
 31
-3.5
  0
LINE
  5
1B9
100
AcDbEntity
100
AcDbLine
 10
0.0
 20
5.0
 30
-6.75
 11
0.0
 21
-0.00000000000000088818
 31
-7.0
  0
LINE
  5
1BA
100
AcDbEntity
100
AcDbLine
 10
0.0
 20
0.0
 30
-7.0
 11
6.0
 21
0.0
 31
-7.0
  0
LINE
  5
1BB
100
AcDbEntity
100
AcDbLine
 10
0.0
 20
5.0
 30
-6.75
 11
6.0
 21
5.0
 31
-6.75
  0
LINE
  5
1BC
100
AcDbEntity
100
AcDbLine
 10
0.0
 20
5.0
 30
-3.5
 11
0.0
 21
0.0
 31
-3.5
  0
LINE
  5
1BD
100
AcDbEntity
100
AcDbLine
 10
4.0
 20
0.0
 30
-3.5
 11
4.0
 21
5.0
 31
-3.5
  0
LINE
  5
1BE
100
AcDbEntity
100
AcDbLine
 10
3.0
 20
0.0
 30
-3.5
 11
3.0
 21
5.0
 31
-3.5
  0
LINE
  5
1BF
100
AcDbEntity
100
AcDbLine
 10
2.0
 20
0.0
 30
-3.5
 11
2.0
 21
5.0
 31
-3.5
  0
LINE
  5
1C0
100
AcDbEntity
100
AcDbLine
 10
1.0
 20
0.0
 30
-3.5
 11
1.0
 21
5.0
 31
-3.5
  0
LINE
  5
1C1
100
AcDbEntity
100
AcDbLine
 10
1.0
 20
0.0
 30
-3.5
 11
2.0
 21
0.0
 31
-3.5
  0
LINE
  5
1C2
100
AcDbEntity
100
AcDbLine
 10
2.0
 20
0.0
 30
-3.5
 11
3.0
 21
0.0
 31
-3.5
  0
LINE
  5
1C3
100
AcDbEntity
100
AcDbLine
 10
3.0
 20
0.0
 30
-3.5
 11
4.0
 21
0.0
 31
-3.5
  0
LINE
  5
1C4
100
AcDbEntity
100
AcDbLine
 10
4.0
 20
0.0
 30
-3.5
 11
5.0
 21
0.0
 31
-3.5
  0
LINE
  5
1C5
100
AcDbEntity
100
AcDbLine
 10
4.0
 20
5.0
 30
-3.5
 11
3.0
 21
5.0
 31
-3.5
  0
LINE
  5
1C6
100
AcDbEntity
100
AcDbLine
 10
3.0
 20
5.0
 30
-3.5
 11
2.0
 21
5.0
 31
-3.5
  0
LINE
  5
1C7
100
AcDbEntity
100
AcDbLine
 10
2.0
 20
5.0
 30
-3.5
 11
1.0
 21
5.0
 31
-3.5
  0
LINE
  5
1C8
100
AcDbEntity
100
AcDbLine
 10
1.0
 20
5.0
 30
-3.5
 11
0.0
 21
5.0
 31
-3.5
  0
ARC
  5
1C9
100
AcDbEntity
100
AcDbCircle
 10
9.89999999999981739052
 20
2.49999999999980149212
 30
-3.5
 40
0.99999999999972954967
100
AcDbArc
 50
-135.00000000000056843419
 51
-126.37307344131862407721
  0
LINE
  5
1CA
100
AcDbEntity
100
AcDbLine
 10
9.19289321881345422582
 20
1.7928932188134520942
 30
-3.5
 11
9.19289321881345422582
 21
1.7928932188134520942
 31
-3.79999999999999982236
  0
ARC
  5
1CB
100
AcDbEntity
100
AcDbCircle
 10
9.89999999999940882844
 20
2.49999999999947464246
 30
-3.5
 40
0.99999999999920952121
100
AcDbArc
 50
-143.62692655868363544869
 51
-134.99999999999721467248
  0
LINE
  5
1CC
100
AcDbEntity
100
AcDbLine
 10
9.19289321881345422582
 20
1.7928932188134520942
 30
-3.5
 11
8.98076118445748861063
 21
1.58076118445748869945
 31
-3.5
  0
LINE
  5
1CD
100
AcDbEntity
100
AcDbLine
 10
9.30695944447252010434
 20
1.69482741011653059715
 30
-3.5
 11
9.08682720163547053005
 21
1.47469516727950633594
 31
-3.5
  0
LINE
  5
1CE
100
AcDbEntity
100
AcDbLine
 10
9.08682720163547053005
 20
1.47469516727950633594
 30
-3.5
 11
8.98076118445748861063
 21
1.58076118445748869945
 31
-3.5
  0
LINE
  5
1CF
100
AcDbEntity
100
AcDbLine
 10
8.87469516727950669122
 20
1.686827201635471285
 30
-3.5
 11
9.09482741011653317287
 21
1.90695944447251797271
 31
-3.5
  0
LINE
  5
1D0
100
AcDbEntity
100
AcDbLine
 10
8.98076118445748861063
 20
1.58076118445748869945
 30
-3.5
 11
8.87469516727950669122
 21
1.686827201635471285
 31
-3.5
  0
LINE
  5
1D1
100
AcDbEntity
100
AcDbLine
 10
8.98076118445748861063
 20
1.58076118445748869945
 30
-3.5
 11
8.98076118445748861063
 21
1.58076118445748869945
 31
-3.54999999999999982236
  0
LINE
  5
1D2
100
AcDbEntity
100
AcDbLine
 10
9.19289321881345422582
 20
1.7928932188134520942
 30
-3.79999999999999982236
 11
9.15753787975412691935
 21
1.75753787975412478772
 31
-3.79999999999999982236
  0
LINE
  5
1D3
100
AcDbEntity
100
AcDbLine
 10
9.15753787975412691935
 20
1.75753787975412478772
 30
-3.79999999999999982236
 11
8.98076118445748861063
 21
1.58076118445748869945
 31
-3.54999999999999982236
  0
ARC
  5
1D4
100
AcDbEntity
100
AcDbCircle
 10
9.90000000000040181192
 20
2.49999999999963895547
 30
-3.5
 40
0.99999999999946209694
100
AcDbArc
 50
-45.00000000000154187774
 51
-36.37307344131746589255
  0
LINE
  5
1D5
100
AcDbEntity
100
AcDbLine
 10
10.60710678118655003743
 20
1.79289321881345276033
 30
-3.5
 11
10.60710678118655003743
 21
1.79289321881345276033
 31
-3.79999999999999982236
  0
ARC
  5
1D6
100
AcDbEntity
100
AcDbCircle
 10
9.90000000000039293013
 20
2.49999999999956346031
 30
-3.5
 40
0.99999999999941513451
100
AcDbArc
 50
-53.62692655868276148112
 51
-44.99999999999811706175
  0
LINE
  5
1D7
100
AcDbEntity
100
AcDbLine
 10
10.60710678118655003743
 20
1.79289321881345276033
 30
-3.5
 11
10.81923881554251387627
 21
1.58076118445748692309
 31
-3.5
  0
LINE
  5
1D8
100
AcDbEntity
100
AcDbLine
 10
10.70517258988346931403
 20
1.90695944447251664045
 30
-3.5
 11
10.92530483272049579568
 21
1.68682720163546950864
 31
-3.5
  0
LINE
  5
1D9
100
AcDbEntity
100
AcDbLine
 10
10.92530483272049579568
 20
1.68682720163546950864
 30
-3.5
 11
10.81923881554251387627
 21
1.58076118445748692309
 31
-3.5
  0
LINE
  5
1DA
100
AcDbEntity
100
AcDbLine
 10
10.71317279836453195685
 20
1.47469516727950522572
 30
-3.5
 11
10.49304055552748415892
 21
1.69482741011653148533
 31
-3.5
  0
LINE
  5
1DB
100
AcDbEntity
100
AcDbLine
 10
10.81923881554251387627
 20
1.58076118445748692309
 30
-3.5
 11
10.71317279836453195685
 21
1.47469516727950522572
 31
-3.5
  0
LINE
  5
1DC
100
AcDbEntity
100
AcDbLine
 10
10.81923881554251387627
 20
1.58076118445748692309
 30
-3.5
 11
10.81923881554251387627
 21
1.58076118445748692309
 31
-3.54999999999999982236
  0
LINE
  5
1DD
100
AcDbEntity
100
AcDbLine
 10
10.60710678118655003743
 20
1.79289321881345276033
 30
-3.79999999999999982236
 11
10.6424621202458773439
 21
1.75753787975412456568
 31
-3.79999999999999982236
  0
LINE
  5
1DE
100
AcDbEntity
100
AcDbLine
 10
10.6424621202458773439
 20
1.75753787975412456568
 30
-3.79999999999999982236
 11
10.81923881554251387627
 21
1.58076118445748692309
 31
-3.54999999999999982236
  0
ARC
  5
1DF
100
AcDbEntity
100
AcDbCircle
 10
9.8999999999999417355
 20
2.4999999999999094058
 30
-3.5
 40
1.00000000000010769163
100
AcDbArc
 50
45.00000000000124344979
 51
53.62692655867988378304
  0
LINE
  5
1E0
100
AcDbEntity
100
AcDbLine
 10
10.60710678118655003743
 20
3.20710678118654834989
 30
-3.5
 11
10.60710678118655003743
 21
3.20710678118654834989
 31
-3.79999999999999982236
  0
ARC
  5
1E1
100
AcDbEntity
100
AcDbCircle
 10
9.90000000000074997786
 20
2.50000000000067457151
 30
-3.5
 40
0.99999999999899502612
100
AcDbArc
 50
36.37307344131478004101
 51
45.00000000000298427949
  0
LINE
  5
1E2
100
AcDbEntity
100
AcDbLine
 10
10.60710678118655003743
 20
3.20710678118654834989
 30
-3.5
 11
10.81923881554251387627
 21
3.41923881554251174464
 31
-3.5
  0
LINE
  5
1E3
100
AcDbEntity
100
AcDbLine
 10
10.49304055552748415892
 20
3.30517258988346940285
 30
-3.5
 11
10.71317279836453195685
 21
3.52530483272049455223
 31
-3.5
  0
LINE
  5
1E4
100
AcDbEntity
100
AcDbLine
 10
10.71317279836453195685
 20
3.52530483272049455223
 30
-3.5
 11
10.81923881554251387627
 21
3.41923881554251174464
 31
-3.5
  0
LINE
  5
1E5
100
AcDbEntity
100
AcDbLine
 10
10.92530483272049579568
 20
3.31317279836452938113
 30
-3.5
 11
10.70517258988346931403
 21
3.09304055552748202729
 31
-3.5
  0
LINE
  5
1E6
100
AcDbEntity
100
AcDbLine
 10
10.81923881554251387627
 20
3.41923881554251174464
 30
-3.5
 11
10.92530483272049579568
 21
3.31317279836452938113
 31
-3.5
  0
LINE
  5
1E7
100
AcDbEntity
100
AcDbLine
 10
10.81923881554251387627
 20
3.41923881554251174464
 30
-3.5
 11
10.81923881554251387627
 21
3.41923881554251174464
 31
-3.54999999999999982236
  0
LINE
  5
1E8
100
AcDbEntity
100
AcDbLine
 10
10.60710678118655003743
 20
3.20710678118654834989
 30
-3.79999999999999982236
 11
10.6424621202458773439
 21
3.24246212024587521228
 31
-3.79999999999999982236
  0
LINE
  5
1E9
100
AcDbEntity
100
AcDbLine
 10
10.6424621202458773439
 20
3.24246212024587521228
 30
-3.79999999999999982236
 11
10.81923881554251387627
 21
3.41923881554251174464
 31
-3.54999999999999982236
  0
LINE
  5
1EA
100
AcDbEntity
100
AcDbLine
 10
10.72377940008233210278
 20
3.42984541726031055831
 30
-3.5
 11
10.74499260351792528922
 21
3.45105862069590729746
 31
-3.5
  0
LINE
  5
1EB
100
AcDbEntity
100
AcDbLine
 10
10.72377940008233210278
 20
3.42984541726031055831
 30
-3.5
 11
10.70256619664673358727
 21
3.45105862069590774155
 31
-3.5
  0
LINE
  5
1EC
100
AcDbEntity
100
AcDbLine
 10
10.72377940008233210278
 20
3.42984541726031055831
 30
-3.5
 11
10.70256619664673536363
 21
3.40863221382471426324
 31
-3.5
  0
LINE
  5
1ED
100
AcDbEntity
100
AcDbLine
 10
10.72377940008233210278
 20
3.42984541726031055831
 30
-3.5
 11
10.74499260351792884194
 21
3.40863221382471559551
 31
-3.5
  0
ARC
  5
1EE
100
AcDbEntity
100
AcDbCircle
 10
5.23259018078046800326
 20
-4.48333333333324990377
 30
-8.76812408671325194121
 40
1.81666666666664777807
210
-0.7071067811865459074
220
-0.70710678118654912705
230
0.0000000000000116851
100
AcDbArc
 50
-123.3984884679874056701
 51
-89.99999999999981525889
  0
ARC
  5
1EF
100
AcDbEntity
100
AcDbCircle
 10
5.23259018078047777323
 20
-4.48333333333346750749
 30
-8.76812408671308496366
 40
1.81666666666665643781
210
-0.70710678118654568536
220
-0.70710678118654946012
230
-0.00000000000001410247
100
AcDbArc
 50
-90.00000000000005684342
 51
-56.60151153201262985704
  0
CIRCLE
  5
1F0
100
AcDbEntity
100
AcDbCircle
 10
9.90000000000000213163
 20
2.5
 30
-6.0
 40
0.9999999999999990008
  0
LINE
  5
1F1
100
AcDbEntity
100
AcDbLine
 10
6.90000000000000035527
 20
0.0
 30
-3.5
 11
6.90000000000000035527
 21
5.0
 31
-3.5
  0
LINE
  5
1F2
100
AcDbEntity
100
AcDbLine
 10
7.79999999999999982236
 20
0.0
 30
-3.5
 11
7.79999999999999982236
 21
5.0
 31
-3.5
  0
LINE
  5
1F3
100
AcDbEntity
100
AcDbLine
 10
11.10000000000000142109
 20
3.70000000000000017764
 30
-3.5
 11
11.10000000000000142109
 21
5.0
 31
-3.5
  0
LINE
  5
1F4
100
AcDbEntity
100
AcDbLine
 10
6.0
 20
0.0
 30
-3.5
 11
6.90000000000000035527
 21
0.0
 31
-3.5
  0
LINE
  5
1F5
100
AcDbEntity
100
AcDbLine
 10
6.90000000000000035527
 20
0.0
 30
-3.5
 11
7.79999999999999982236
 21
0.0
 31
-3.5
  0
LINE
  5
1F6
100
AcDbEntity
100
AcDbLine
 10
7.79999999999999982236
 20
0.0
 30
-3.5
 11
8.70000000000000106581
 21
0.0
 31
-3.5
  0
LINE
  5
1F7
100
AcDbEntity
100
AcDbLine
 10
8.70000000000000106581
 20
0.0
 30
-3.5
 11
9.5
 21
0.0
 31
-3.5
  0
LINE
  5
1F8
100
AcDbEntity
100
AcDbLine
 10
9.5
 20
0.0
 30
-3.5
 11
10.30000000000000071054
 21
0.0
 31
-3.5
  0
LINE
  5
1F9
100
AcDbEntity
100
AcDbLine
 10
10.30000000000000071054
 20
0.0
 30
-3.5
 11
11.10000000000000142109
 21
0.0
 31
-3.5
  0
LINE
  5
1FA
100
AcDbEntity
100
AcDbLine
 10
11.10000000000000142109
 20
0.0
 30
-3.5
 11
12.0
 21
0.0
 31
-3.5
  0
ARC
  5
1FB
100
AcDbEntity
100
AcDbCircle
 10
10.72377940008233210278
 20
3.42984541726030967013
 30
-3.5
 40
0.00850000000000027643
100
AcDbArc
 50
151.88431489876342084244
 51
224.99999999998942712409
  0
ARC
  5
1FC
100
AcDbEntity
100
AcDbCircle
 10
10.72377940008233210278
 20
3.42984541726031455511
 30
-3.50000000000000088818
 40
0.00850000000000328618
100
AcDbArc
 50
-134.99999999998732391759
 51
-45.00000000000846966941
  0
ARC
  5
1FD
100
AcDbEntity
100
AcDbCircle
 10
10.72377940008233032643
 20
3.42984541726031055831
 30
-3.49999999999999955591
 40
0.00850000000000143696
100
AcDbArc
 50
-44.99999999998095745468
 51
44.99999999999788258265
  0
ARC
  5
1FE
100
AcDbEntity
100
AcDbCircle
 10
10.72377940008233210278
 20
3.42984541726031721964
 30
-3.50000000000000133227
 40
0.00849999999999549206
100
AcDbArc
 50
44.9999999999745980972
 51
135.00000000004024514055
  0
ARC
  5
1FF
100
AcDbEntity
100
AcDbCircle
 10
10.72377940008244934234
 20
3.42984541726022573727
 30
-3.5
 40
0.00850000000014329571
100
AcDbArc
 50
135.00000000016299850358
 51
151.88431489863683054864
  0
LINE
  5
200
100
AcDbEntity
100
AcDbLine
 10
10.851058620695908985
 20
3.34499260351792360169
 30
-3.5
 11
10.82984541726031224584
 21
3.32377940008232952707
 31
-3.5
  0
LINE
  5
201
100
AcDbEntity
100
AcDbLine
 10
10.851058620695908985
 20
3.30256619664673189973
 30
-3.5
 11
10.82984541726031224584
 21
3.32377940008232952707
 31
-3.5
  0
LINE
  5
202
100
AcDbEntity
100
AcDbLine
 10
10.80863221382471550669
 20
3.302566196646733232
 30
-3.5
 11
10.82984541726031224584
 21
3.32377940008232952707
 31
-3.5
  0
LINE
  5
203
100
AcDbEntity
100
AcDbLine
 10
10.80863221382471728305
 20
3.34499260351792671031
 30
-3.5
 11
10.82984541726031224584
 21
3.32377940008232952707
 31
-3.5
  0
ARC
  5
204
100
AcDbEntity
100
AcDbCircle
 10
-10.82984541726031224584
 20
3.32377940008233707658
 30
3.5
 40
0.00850000000000645205
210
0.0
220
-0.0
230
-1.0
100
AcDbArc
 50
-118.11568510120467578872
 51
-45.00000000003173994401
  0
ARC
  5
205
100
AcDbEntity
100
AcDbCircle
 10
-10.8298454172603140222
 20
3.32377940008232908298
 30
3.5
 40
0.00850000000000164686
210
0.0
220
0.0
230
-1.0
100
AcDbArc
 50
-44.99999999998519228939
 51
44.99999999999788258265
  0
ARC
  5
206
100
AcDbEntity
100
AcDbCircle
 10
-10.8298454172603140222
 20
3.32377940008295214014
 30
3.49999999999940580864
 40
0.00850000000000169023
210
-0.0
220
-0.00000000000017837828
230
-1.0
100
AcDbArc
 50
45.00000000000423483471
 51
134.99999999998939870238
  0
ARC
  5
207
100
AcDbEntity
100
AcDbCircle
 10
-10.82984541725969940273
 20
3.32377940008233041524
 30
3.50000000000193312033
 40
0.00849999999999261589
210
0.00000000000017837828
220
-0.0
230
-1.0
100
AcDbArc
 50
134.99999999995978328116
 51
225.00000000005718447937
  0
ARC
  5
208
100
AcDbEntity
100
AcDbCircle
 10
-10.82984541726028915321
 20
3.32377940008235928104
 30
3.5
 40
0.00850000000003682012
210
0.0
220
0.0
230
-1.0
100
AcDbArc
 50
-134.99999999996614974407
 51
-118.11568510127145259503
  0
LINE
  5
209
100
AcDbEntity
100
AcDbLine
 10
10.64599765415180954164
 20
3.35206367132979110579
 30
-3.5
 11
10.6672108575874062808
 21
3.37327687476538473632
 31
-3.5
  0
LINE
  5
20A
100
AcDbEntity
100
AcDbLine
 10
10.64599765415180954164
 20
3.39449007820098236365
 30
-3.5
 11
10.6672108575874062808
 21
3.37327687476538473632
 31
-3.5
  0
LINE
  5
20B
100
AcDbEntity
100
AcDbLine
 10
10.68842406102300301995
 20
3.39449007820098147548
 30
-3.5
 11
10.6672108575874062808
 21
3.37327687476538473632
 31
-3.5
  0
LINE
  5
20C
100
AcDbEntity
100
AcDbLine
 10
10.6884240610230012436
 20
3.35206367132978799717
 30
-3.5
 11
10.6672108575874062808
 21
3.37327687476538473632
 31
-3.5
  0
ARC
  5
20D
100
AcDbEntity
100
AcDbCircle
 10
-10.6672108575874062808
 20
3.37327687476537896316
 30
3.5
 40
0.00850000000000509896
210
0.0
220
0.0
230
-1.0
100
AcDbArc
 50
61.88431489879108227115
 51
134.99999999997882582647
  0
ARC
  5
20E
100
AcDbEntity
100
AcDbCircle
 10
-10.66721085758740450444
 20
3.3732768747653856245
 30
3.5
 40
0.00850000000000143696
210
0.0
220
0.0
230
-1.0
100
AcDbArc
 50
135.00000000001904254532
 51
224.99999999999786837179
  0
ARC
  5
20F
100
AcDbEntity
100
AcDbCircle
 10
-10.66721085758740450444
 20
3.37327687476476079098
 30
3.50000000000060040861
 40
0.00850000000000040827
210
0.0
220
0.00000000000017837828
230
-1.0
100
AcDbArc
 50
-135.00000000000423483471
 51
-45.0000000000021032065
  0
ARC
  5
210
100
AcDbEntity
100
AcDbCircle
 10
-10.66721085758802445298
 20
3.37327687476538384814
 30
3.49999999999809841
 40
0.00849999999999620677
210
-0.00000000000017837828
220
0.0
230
-1.0
100
AcDbArc
 50
-45.00000000001270450412
 51
45.00000000003174704943
  0
ARC
  5
211
100
AcDbEntity
100
AcDbCircle
 10
-10.66721085758742226801
 20
3.37327687476536697275
 30
3.5
 40
0.00850000000002330662
210
0.0
220
0.0
230
-1.0
100
AcDbArc
 50
45.00000000001057998134
 51
61.88431489873411806002
  0
LINE
  5
212
100
AcDbEntity
100
AcDbLine
 10
10.77327687476538642386
 20
3.26721085758740370508
 30
-3.5
 11
10.75206367132979323742
 21
3.24599765415180741002
 31
-3.5
  0
LINE
  5
213
100
AcDbEntity
100
AcDbLine
 10
10.77327687476538642386
 20
3.26721085758740370508
 30
-3.5
 11
10.79449007820098493937
 21
3.24599765415180696593
 31
-3.5
  0
LINE
  5
214
100
AcDbEntity
100
AcDbLine
 10
10.77327687476538642386
 20
3.26721085758740370508
 30
-3.5
 11
10.79449007820098316301
 21
3.28842406102300044424
 31
-3.5
  0
LINE
  5
215
100
AcDbEntity
100
AcDbLine
 10
10.77327687476538642386
 20
3.26721085758740370508
 30
-3.5
 11
10.75206367132978968471
 21
3.28842406102299911197
 31
-3.5
  0
ARC
  5
216
100
AcDbEntity
100
AcDbCircle
 10
10.77327687476538820022
 20
3.26721085758740503735
 30
-3.5
 40
0.00849999999999871692
100
AcDbArc
 50
-28.115685101244874744
 51
44.99999999999576516529
  0
ARC
  5
217
100
AcDbEntity
100
AcDbCircle
 10
10.77327687476538820022
 20
3.26721085758740148464
 30
-3.5
 40
0.00850000000000179605
100
AcDbArc
 50
45.00000000001270450412
 51
134.99999999999576516529
  0
ARC
  5
218
100
AcDbEntity
100
AcDbCircle
 10
10.77327687476538642386
 20
3.26721085758740326099
 30
-3.49999999999999866773
 40
0.00849999999999979938
100
AcDbArc
 50
134.99999999999576516529
 51
225.00000000000426325641
  0
ARC
  5
219
100
AcDbEntity
100
AcDbCircle
 10
10.77327687476538642386
 20
3.26721085758739748783
 30
-3.50000000000000133227
 40
0.0084999999999959535
100
AcDbArc
 50
-135.00000000002327738002
 51
-44.99999999996401101043
  0
ARC
  5
21A
100
AcDbEntity
100
AcDbCircle
 10
10.77327687476523898624
 20
3.2672108575875098424
 30
-3.5
 40
0.00850000000017999725
100
AcDbArc
 50
-44.99999999979680609385
 51
-28.1156851013939821371
  0
LINE
  5
21B
100
AcDbEntity
100
AcDbLine
 10
8.97015458273969201741
 20
3.32377940008232997116
 30
-3.5
 11
8.94894137930409527826
 21
3.3449926035179231576
 31
-3.5
  0
LINE
  5
21C
100
AcDbEntity
100
AcDbLine
 10
8.97015458273969201741
 20
3.32377940008232997116
 30
-3.5
 11
8.9489413793040935019
 21
3.30256619664673234382
 31
-3.5
  0
LINE
  5
21D
100
AcDbEntity
100
AcDbLine
 10
8.97015458273969201741
 20
3.32377940008232997116
 30
-3.5
 11
8.99136778617528875657
 21
3.30256619664673278791
 31
-3.5
  0
LINE
  5
21E
100
AcDbEntity
100
AcDbLine
 10
8.97015458273969201741
 20
3.32377940008232997116
 30
-3.5
 11
8.99136778617528698021
 21
3.34499260351792582213
 31
-3.5
  0
ARC
  5
21F
100
AcDbEntity
100
AcDbCircle
 10
8.97015458273969201741
 20
3.32377940008233130342
 30
-3.5
 40
0.00850000000000096859
100
AcDbArc
 50
-118.11568510122303621301
 51
-45.00000000001058708676
  0
ARC
  5
220
100
AcDbEntity
100
AcDbCircle
 10
8.97015458273969201741
 20
3.32377940008232997116
 30
-3.50000000000000088818
 40
0.00849999999999969356
100
AcDbArc
 50
-45.00000000000423483471
 51
45.00000000000212452278
  0
ARC
  5
221
100
AcDbEntity
100
AcDbCircle
 10
8.97015458273969024106
 20
3.32377940008232952707
 30
-3.49999999999999955591
 40
0.00850000000000040827
100
AcDbArc
 50
44.99999999999576516529
 51
134.9999999999978967935
  0
ARC
  5
222
100
AcDbEntity
100
AcDbCircle
 10
8.97015458273968491199
 20
3.32377940008232952707
 30
-3.50000000000000133227
 40
0.00849999999999589279
100
AcDbArc
 50
134.99999999997248778527
 51
225.00000000002754063644
  0
ARC
  5
223
100
AcDbEntity
100
AcDbCircle
 10
8.97015458273978794068
 20
3.32377940008246541836
 30
-3.5
 40
0.0085000000001647126
100
AcDbArc
 50
-134.9999999998158557446
 51
-118.11568510136729059923
  0
LINE
  5
224
100
AcDbEntity
100
AcDbLine
 10
9.05500739648207897403
 20
3.45105862069590685337
 30
-3.5
 11
9.07622059991767216047
 21
3.42984541726031100239
 31
-3.5
  0
LINE
  5
225
100
AcDbEntity
100
AcDbLine
 10
9.09743380335326889963
 20
3.45105862069590818564
 30
-3.5
 11
9.07622059991767216047
 21
3.42984541726031100239
 31
-3.5
  0
LINE
  5
226
100
AcDbEntity
100
AcDbLine
 10
9.09743380335326889963
 20
3.40863221382471381915
 30
-3.5
 11
9.07622059991767216047
 21
3.42984541726031100239
 31
-3.5
  0
LINE
  5
227
100
AcDbEntity
100
AcDbLine
 10
9.05500739648207542132
 20
3.40863221382471515142
 30
-3.5
 11
9.07622059991767216047
 21
3.42984541726031100239
 31
-3.5
  0
ARC
  5
228
100
AcDbEntity
100
AcDbCircle
 10
-9.07622059991766860776
 20
3.42984541726031144648
 30
3.5
 40
0.00850000000000255239
210
0.0
220
0.0
230
-1.0
100
AcDbArc
 50
151.88431489878524871528
 51
224.99999999998942712409
  0
ARC
  5
229
100
AcDbEntity
100
AcDbCircle
 10
-9.07622059991767216047
 20
3.42984541726030789377
 30
3.5
 40
0.00849999999999748873
210
0.0
220
-0.0
230
-1.0
100
AcDbArc
 50
-135.00000000001057287591
 51
-44.99999999998730260131
  0
ARC
  5
22A
100
AcDbEntity
100
AcDbCircle
 10
-9.07622059991704865922
 20
3.42984541726031100239
 30
3.50000000000161781699
 40
0.00849999999999969356
210
0.00000000000017837828
220
0.0
230
-1.0
100
AcDbArc
 50
-45.00000000000211741735
 51
45.00000000000424194013
  0
ARC
  5
22B
100
AcDbEntity
100
AcDbCircle
 10
-9.07622059991767216047
 20
3.42984541725969505066
 30
3.5000000000006132872
 40
0.00849999999999349713
210
0.0
220
0.00000000000017837828
230
-1.0
100
AcDbArc
 50
44.99999999996401811586
 51
135.00000000003811351235
  0
ARC
  5
22C
100
AcDbEntity
100
AcDbCircle
 10
-9.07622059991756557906
 20
3.42984541726023062225
 30
3.5
 40
0.00850000000013161061
210
0.0
220
0.0
230
-1.0
100
AcDbArc
 50
135.00000000012275336303
 51
151.88431489863199885804
  0
LINE
  5
22D
100
AcDbEntity
100
AcDbLine
 10
9.04793632867021102584
 20
3.24599765415180741002
 30
-3.5
 11
9.0267231252346178394
 21
3.26721085758740326099
 31
-3.5
  0
LINE
  5
22E
100
AcDbEntity
100
AcDbLine
 10
9.00550992179901932388
 20
3.24599765415180741002
 30
-3.5
 11
9.0267231252346178394
 21
3.26721085758740326099
 31
-3.5
  0
LINE
  5
22F
100
AcDbEntity
100
AcDbLine
 10
9.00550992179902110024
 20
3.28842406102300088833
 30
-3.5
 11
9.0267231252346178394
 21
3.26721085758740326099
 31
-3.5
  0
LINE
  5
230
100
AcDbEntity
100
AcDbLine
 10
9.04793632867021457855
 20
3.28842406102299822379
 30
-3.5
 11
9.0267231252346178394
 21
3.26721085758740326099
 31
-3.5
  0
ARC
  5
231
100
AcDbEntity
100
AcDbCircle
 10
-9.02672312523461251033
 20
3.26721085758740414917
 30
3.5
 40
0.00849999999999533594
210
0.0
220
0.0
230
-1.0
100
AcDbArc
 50
-28.11568510125088238283
 51
45.00000000002539479738
  0
ARC
  5
232
100
AcDbEntity
100
AcDbCircle
 10
-9.0267231252346178394
 20
3.26721085758740459326
 30
3.5
 40
0.00849999999999836824
210
0.0
220
0.0
230
-1.0
100
AcDbArc
 50
44.99999999999788258265
 51
135.00000000000636646291
  0
ARC
  5
233
100
AcDbEntity
100
AcDbCircle
 10
-9.02672312523523423522
 20
3.2672108575874028169
 30
3.49999999999838840026
 40
0.00850000000000471385
210
-0.00000000000017837828
220
0.0
230
-1.0
100
AcDbArc
 50
135.00000000003174704943
 51
224.99999999996825295057
  0
ARC
  5
234
100
AcDbEntity
100
AcDbCircle
 10
-9.0267231252346178394
 20
3.26721085758802187726
 30
3.49999999999941868722
 40
0.0084999999999959535
210
-0.0
220
-0.00000000000017837828
230
-1.0
100
AcDbArc
 50
-135.00000000002327738002
 51
-44.99999999996401101043
  0
ARC
  5
235
100
AcDbEntity
100
AcDbCircle
 10
-9.02672312523466047196
 20
3.26721085758743123861
 30
3.5
 40
0.00850000000005041688
210
0.0
220
0.0
230
-1.0
100
AcDbArc
 50
-44.99999999992169108509
 51
-28.11568510125958653134
  0
LINE
  5
236
100
AcDbEntity
100
AcDbLine
 10
9.13278914241259798246
 20
3.37327687476538429223
 30
-3.5
 11
9.15400234584819472161
 21
3.35206367132979110579
 31
-3.5
  0
LINE
  5
237
100
AcDbEntity
100
AcDbLine
 10
9.13278914241259798246
 20
3.37327687476538429223
 30
-3.5
 11
9.15400234584819472161
 21
3.39449007820098325183
 31
-3.5
  0
LINE
  5
238
100
AcDbEntity
100
AcDbLine
 10
9.13278914241259798246
 20
3.37327687476538429223
 30
-3.5
 11
9.1115759389770012433
 21
3.39449007820098191957
 31
-3.5
  0
LINE
  5
239
100
AcDbEntity
100
AcDbLine
 10
9.13278914241259798246
 20
3.37327687476538429223
 30
-3.5
 11
9.11157593897700479602
 21
3.35206367132978755308
 31
-3.5
  0
ARC
  5
23A
100
AcDbEntity
100
AcDbCircle
 10
9.13278914241259798246
 20
3.3732768747653816277
 30
-3.5
 40
0.00850000000000224361
100
AcDbArc
 50
61.88431489878261970716
 51
134.99999999998308908289
  0
ARC
  5
23B
100
AcDbEntity
100
AcDbCircle
 10
9.13278914241260508788
 20
3.37327687476538473632
 30
-3.5
 40
0.00850000000000492376
100
AcDbArc
 50
135.00000000003174704943
 51
224.99999999997248778527
  0
ARC
  5
23C
100
AcDbEntity
100
AcDbCircle
 10
9.13278914241259798246
 20
3.37327687476538784495
 30
-3.49999999999999866773
 40
0.00850000000000257147
100
AcDbArc
 50
-134.99999999997882582647
 51
-45.00000000000846256398
  0
ARC
  5
23D
100
AcDbEntity
100
AcDbCircle
 10
9.13278914241260331153
 20
3.37327687476538384814
 30
-3.50000000000000133227
 40
0.00849999999999631085
100
AcDbArc
 50
-45.00000000001480771061
 51
45.00000000003176836572
  0
ARC
  5
23E
100
AcDbEntity
100
AcDbCircle
 10
9.1327891424125180464
 20
3.37327687476528081945
 30
-3.5
 40
0.0085000000001294717
100
AcDbArc
 50
45.00000000011641532183
 51
61.8843148986276005985
  0
LINE
  5
23F
100
AcDbEntity
100
AcDbLine
 10
9.07622059991767216047
 20
1.57015458273968944169
 30
-3.5
 11
9.05500739648207897403
 21
1.54894137930409270254
 31
-3.5
  0
LINE
  5
240
100
AcDbEntity
100
AcDbLine
 10
9.07622059991767216047
 20
1.57015458273968944169
 30
-3.5
 11
9.09743380335327067598
 21
1.54894137930409225845
 31
-3.5
  0
LINE
  5
241
100
AcDbEntity
100
AcDbLine
 10
9.07622059991767216047
 20
1.57015458273968944169
 30
-3.5
 11
9.09743380335326889963
 21
1.59136778617528595881
 31
-3.5
  0
LINE
  5
242
100
AcDbEntity
100
AcDbLine
 10
9.07622059991767216047
 20
1.57015458273968944169
 30
-3.5
 11
9.05500739648207542132
 21
1.59136778617528440449
 31
-3.5
  0
ARC
  5
243
100
AcDbEntity
100
AcDbCircle
 10
9.07622059991767571319
 20
1.57015458273968988578
 30
-3.5
 40
0.00849999999999692668
100
AcDbArc
 50
-28.11568510124523712079
 51
45.00000000001798383664
  0
ARC
  5
244
100
AcDbEntity
100
AcDbCircle
 10
9.07622059991767216047
 20
1.57015458273969077396
 30
-3.50000000000000088818
 40
0.00849999999999836997
100
AcDbArc
 50
44.99999999999683808483
 51
135.00000000000528643795
  0
ARC
  5
245
100
AcDbEntity
100
AcDbCircle
 10
9.07622059991767216047
 20
1.57015458273968899761
 30
-3.49999999999999955591
 40
0.00849999999999969356
100
AcDbArc
 50
134.99999999999684519025
 51
225.00000000000321165317
  0
ARC
  5
246
100
AcDbEntity
100
AcDbCircle
 10
9.07622059991767216047
 20
1.57015458273967967173
 30
-3.50000000000000133227
 40
0.00849999999999262457
100
AcDbArc
 50
-135.00000000004126832209
 51
-44.99999999995554134102
  0
ARC
  5
247
100
AcDbEntity
100
AcDbCircle
 10
9.07622059991759577713
 20
1.57015458273974783943
 30
-3.5
 40
0.00850000000009477723
100
AcDbArc
 50
-44.99999999991639754171
 51
-28.11568510133587039945
  0
LINE
  5
248
100
AcDbEntity
100
AcDbLine
 10
8.94894137930409527826
 20
1.65500739648207639831
 30
-3.5
 11
8.97015458273969201741
 21
1.67622059991767047293
 31
-3.5
  0
LINE
  5
249
100
AcDbEntity
100
AcDbLine
 10
8.94894137930409527826
 20
1.69743380335326810027
 30
-3.5
 11
8.97015458273969201741
 21
1.67622059991767047293
 31
-3.5
  0
LINE
  5
24A
100
AcDbEntity
100
AcDbLine
 10
8.99136778617528875657
 20
1.69743380335326699004
 30
-3.5
 11
8.97015458273969201741
 21
1.67622059991767047293
 31
-3.5
  0
LINE
  5
24B
100
AcDbEntity
100
AcDbLine
 10
8.99136778617528698021
 20
1.65500739648207351173
 30
-3.5
 11
8.97015458273969201741
 21
1.67622059991767047293
 31
-3.5
  0
ARC
  5
24C
100
AcDbEntity
100
AcDbCircle
 10
-8.97015458273969201741
 20
1.67622059991766914067
 30
3.5
 40
0.00850000000000071185
210
0.0
220
0.0
230
-1.0
100
AcDbArc
 50
61.88431489877555691237
 51
134.99999999999047872734
  0
ARC
  5
24D
100
AcDbEntity
100
AcDbCircle
 10
-8.97015458273969201741
 20
1.67622059991767047293
 30
3.5
 40
0.00849999999999969356
210
0.0
220
0.0
230
-1.0
100
AcDbArc
 50
134.99999999999684519025
 51
225.00000000000321165317
  0
ARC
  5
24E
100
AcDbEntity
100
AcDbCircle
 10
-8.97015458273969024106
 20
1.67622059991704697168
 30
3.50000000000029753977
 40
0.00850000000000087144
210
0.0
220
0.00000000000017837828
230
-1.0
100
AcDbArc
 50
-135.00000000000105160325
 51
-45.00000000000529354338
  0
ARC
  5
24F
100
AcDbEntity
100
AcDbCircle
 10
-8.97015458274030486052
 20
1.67622059991766936271
 30
3.49999999999840127884
 40
0.00849999999999256385
210
-0.00000000000017837828
220
0.0
230
-1.0
100
AcDbArc
 50
-45.00000000003809930149
 51
45.00000000005820766091
  0
ARC
  5
250
100
AcDbEntity
100
AcDbCircle
 10
-8.97015458273971511005
 20
1.67622059991764005282
 30
3.5
 40
0.00850000000003735268
210
0.0
220
0.0
230
-1.0
100
AcDbArc
 50
45.00000000003704059282
 51
61.88431489873067192775
  0
LINE
  5
251
100
AcDbEntity
100
AcDbLine
 10
9.15400234584819472161
 20
1.64793632867020911625
 30
-3.5
 11
9.13278914241259798246
 21
1.62672312523461526368
 31
-3.5
  0
LINE
  5
252
100
AcDbEntity
100
AcDbLine
 10
9.15400234584819472161
 20
1.60550992179901763635
 30
-3.5
 11
9.13278914241259798246
 21
1.62672312523461526368
 31
-3.5
  0
LINE
  5
253
100
AcDbEntity
100
AcDbLine
 10
9.1115759389770012433
 20
1.60550992179901852452
 30
-3.5
 11
9.13278914241259798246
 21
1.62672312523461526368
 31
-3.5
  0
LINE
  5
254
100
AcDbEntity
100
AcDbLine
 10
9.11157593897700301966
 20
1.64793632867021200283
 30
-3.5
 11
9.13278914241259798246
 21
1.62672312523461526368
 31
-3.5
  0
ARC
  5
255
100
AcDbEntity
100
AcDbCircle
 10
-9.13278914241259798246
 20
1.62672312523461592981
 30
3.5
 40
0.00850000000000027817
210
0.0
220
-0.0
230
-1.0
100
AcDbArc
 50
-118.11568510122584996225
 51
-45.00000000000635225206
  0
ARC
  5
256
100
AcDbEntity
100
AcDbCircle
 10
-9.13278914241259798246
 20
1.62672312523461526368
 30
3.5
 40
0.00849999999999964152
210
0.0
220
0.0
230
-1.0
100
AcDbArc
 50
-45.00000000000317612603
 51
45.00000000000211741735
  0
ARC
  5
257
100
AcDbEntity
100
AcDbCircle
 10
-9.13278914241259975881
 20
1.62672312523523832084
 30
3.49999999999970867748
 40
0.00850000000000110216
210
-0.0
220
-0.00000000000017837828
230
-1.0
100
AcDbArc
 50
45.0
 51
134.99999999999258193384
  0
ARC
  5
258
100
AcDbEntity
100
AcDbCircle
 10
-9.13278914241197981028
 20
1.6267231252346163739
 30
3.50000000000163025149
 40
0.00849999999999625881
210
0.00000000000017837828
220
-0.0
230
-1.0
100
AcDbArc
 50
134.99999999998732391759
 51
225.00000000003282707439
  0
ARC
  5
259
100
AcDbEntity
100
AcDbCircle
 10
-9.13278914241258910067
 20
1.62672312523462636591
 30
3.5
 40
0.00850000000001372748
210
0.0
220
0.0
230
-1.0
100
AcDbArc
 50
-134.99999999998732391759
 51
-118.11568510124550357432
  0
LINE
  5
25A
100
AcDbEntity
100
AcDbLine
 10
9.0267231252346178394
 20
1.73278914241259629492
 30
-3.5
 11
9.04793632867021102584
 21
1.75400234584819281203
 31
-3.5
  0
LINE
  5
25B
100
AcDbEntity
100
AcDbLine
 10
9.0267231252346178394
 20
1.73278914241259629492
 30
-3.5
 11
9.00550992179901932388
 21
1.75400234584819303407
 31
-3.5
  0
LINE
  5
25C
100
AcDbEntity
100
AcDbLine
 10
9.0267231252346178394
 20
1.73278914241259629492
 30
-3.5
 11
9.00550992179902110024
 21
1.71157593897699955576
 31
-3.5
  0
LINE
  5
25D
100
AcDbEntity
100
AcDbLine
 10
9.0267231252346178394
 20
1.73278914241259629492
 30
-3.5
 11
9.04793632867021457855
 21
1.71157593897700111008
 31
-3.5
  0
ARC
  5
25E
100
AcDbEntity
100
AcDbCircle
 10
9.02672312523461251033
 20
1.73278914241259562878
 30
-3.5
 40
0.00849999999999534635
100
AcDbArc
 50
151.8843148987491247226
 51
225.00000000002540900823
  0
ARC
  5
25F
100
AcDbEntity
100
AcDbCircle
 10
9.0267231252346178394
 20
1.73278914241259562878
 30
-3.5
 40
0.00849999999999905172
100
AcDbArc
 50
-135.0
 51
-44.99999999999787547722
  0
ARC
  5
260
100
AcDbEntity
100
AcDbCircle
 10
9.0267231252346178394
 20
1.73278914241259673901
 30
-3.49999999999999866773
 40
0.00849999999999964152
100
AcDbArc
 50
-45.00000000000317612603
 51
45.00000000000211741735
  0
ARC
  5
261
100
AcDbEntity
100
AcDbCircle
 10
9.02672312523461606304
 20
1.73278914241260340035
 30
-3.50000000000000133227
 40
0.00849999999999508267
100
AcDbArc
 50
44.99999999996189359308
 51
135.00000000003282707439
  0
ARC
  5
262
100
AcDbEntity
100
AcDbCircle
 10
9.02672312523475639523
 20
1.73278914241249726302
 30
-3.5
 40
0.00850000000016862788
100
AcDbArc
 50
135.00000000019579715627
 51
151.88431489862136913871
  0
LINE
  5
263
100
AcDbEntity
100
AcDbLine
 10
10.82984541726031224584
 20
1.67622059991767002884
 30
-3.5
 11
10.851058620695908985
 21
1.65500739648207639831
 31
-3.5
  0
LINE
  5
264
100
AcDbEntity
100
AcDbLine
 10
10.82984541726031224584
 20
1.67622059991767002884
 30
-3.5
 11
10.85105862069591076136
 21
1.69743380335326743413
 31
-3.5
  0
LINE
  5
265
100
AcDbEntity
100
AcDbLine
 10
10.82984541726031224584
 20
1.67622059991767002884
 30
-3.5
 11
10.80863221382471550669
 21
1.69743380335326721209
 31
-3.5
  0
LINE
  5
266
100
AcDbEntity
100
AcDbLine
 10
10.82984541726031224584
 20
1.67622059991767002884
 30
-3.5
 11
10.80863221382471728305
 21
1.65500739648207395582
 31
-3.5
  0
ARC
  5
267
100
AcDbEntity
100
AcDbCircle
 10
10.82984541726031224584
 20
1.6762205999176638116
 30
-3.5
 40
0.00850000000000558469
100
AcDbArc
 50
61.88431489879248914576
 51
134.99999999997461941348
  0
ARC
  5
268
100
AcDbEntity
100
AcDbCircle
 10
10.8298454172603140222
 20
1.67622059991767091702
 30
-3.50000000000000088818
 40
0.00850000000000154105
100
AcDbArc
 50
135.00000000001693933882
 51
224.9999999999978967935
  0
ARC
  5
269
100
AcDbEntity
100
AcDbCircle
 10
10.8298454172603140222
 20
1.67622059991767091702
 30
-3.49999999999999955591
 40
0.00850000000000086971
100
AcDbArc
 50
-135.0000000000021032065
 51
-45.00000000000635225206
  0
ARC
  5
26A
100
AcDbEntity
100
AcDbCircle
 10
10.82984541726032290399
 20
1.67622059991766869658
 30
-3.50000000000000133227
 40
0.00849999999999256385
100
AcDbArc
 50
-45.00000000003809930149
 51
45.00000000005820766091
  0
ARC
  5
26B
100
AcDbEntity
100
AcDbCircle
 10
10.82984541726025540243
 20
1.67622059991759808639
 30
-3.5
 40
0.00850000000009038491
100
AcDbArc
 50
45.00000000007302958238
 51
61.88431489866332668726
  0
LINE
  5
26C
100
AcDbEntity
100
AcDbLine
 10
10.74499260351792528922
 20
1.54894137930409270254
 30
-3.5
 11
10.72377940008233210278
 21
1.57015458273968899761
 31
-3.5
  0
LINE
  5
26D
100
AcDbEntity
100
AcDbLine
 10
10.70256619664673536363
 20
1.54894137930409181436
 30
-3.5
 11
10.72377940008233210278
 21
1.57015458273968899761
 31
-3.5
  0
LINE
  5
26E
100
AcDbEntity
100
AcDbLine
 10
10.70256619664673536363
 20
1.59136778617528618085
 30
-3.5
 11
10.72377940008233210278
 21
1.57015458273968899761
 31
-3.5
  0
LINE
  5
26F
100
AcDbEntity
100
AcDbLine
 10
10.74499260351792706558
 20
1.59136778617528484858
 30
-3.5
 11
10.72377940008233210278
 21
1.57015458273968899761
 31
-3.5
  0
ARC
  5
270
100
AcDbEntity
100
AcDbCircle
 10
-10.72377940008233920821
 20
1.57015458273968921965
 30
3.5
 40
0.0085000000000059403
210
0.0
220
0.0
230
-1.0
100
AcDbArc
 50
-28.11568510120742558911
 51
44.99999999996084909526
  0
ARC
  5
271
100
AcDbEntity
100
AcDbCircle
 10
-10.72377940008233032643
 20
1.57015458273968921965
 30
3.5
 40
0.00850000000000017582
210
0.0
220
0.0
230
-1.0
100
AcDbArc
 50
45.00000000000317612603
 51
135.00000000000846966941
  0
ARC
  5
272
100
AcDbEntity
100
AcDbCircle
 10
-10.72377940008295560403
 20
1.57015458273968855352
 30
3.49999999999808597551
 40
0.00849999999999969356
210
-0.00000000000017837828
220
0.0
230
-1.0
100
AcDbArc
 50
134.99999999999684519025
 51
225.00000000000321165317
  0
ARC
  5
273
100
AcDbEntity
100
AcDbCircle
 10
-10.72377940008233210278
 20
1.57015458274030539343
 30
3.49999999999972111198
 40
0.00849999999999390653
210
-0.0
220
-0.00000000000017837828
230
-1.0
100
AcDbArc
 50
-135.00000000003279865268
 51
-44.99999999996399679958
  0
ARC
  5
274
100
AcDbEntity
100
AcDbCircle
 10
-10.72377940008244046055
 20
1.57015458273977026593
 30
3.5
 40
0.00850000000013355177
210
0.0
220
0.0
230
-1.0
100
AcDbArc
 50
-44.99999999987299759141
 51
-28.11568510136763165974
  0
LINE
  5
275
100
AcDbEntity
100
AcDbLine
 10
10.75206367132979323742
 20
1.75400234584819258998
 30
-3.5
 11
10.77327687476538642386
 21
1.73278914241259651696
 31
-3.5
  0
LINE
  5
276
100
AcDbEntity
100
AcDbLine
 10
10.79449007820098493937
 20
1.75400234584819258998
 30
-3.5
 11
10.77327687476538642386
 21
1.73278914241259651696
 31
-3.5
  0
LINE
  5
277
100
AcDbEntity
100
AcDbLine
 10
10.79449007820098316301
 20
1.71157593897699911167
 30
-3.5
 11
10.77327687476538642386
 21
1.73278914241259651696
 31
-3.5
  0
LINE
  5
278
100
AcDbEntity
100
AcDbLine
 10
10.75206367132978968471
 20
1.71157593897700177621
 30
-3.5
 11
10.77327687476538642386
 21
1.73278914241259651696
 31
-3.5
  0
ARC
  5
279
100
AcDbEntity
100
AcDbCircle
 10
-10.77327687476538642386
 20
1.73278914241259518469
 30
3.5
 40
0.00850000000000026602
210
0.0
220
0.0
230
-1.0
100
AcDbArc
 50
151.88431489876342084244
 51
224.99999999998942712409
  0
ARC
  5
27A
100
AcDbEntity
100
AcDbCircle
 10
-10.77327687476538820022
 20
1.73278914241259895945
 30
3.5
 40
0.00850000000000175095
210
0.0
220
-0.0
230
-1.0
100
AcDbArc
 50
-134.99999999998411226443
 51
-45.0000000000031690206
  0
ARC
  5
27B
100
AcDbEntity
100
AcDbCircle
 10
-10.77327687476477002804
 20
1.73278914241259696105
 30
3.50000000000192024174
 40
0.00850000000000471385
210
0.00000000000017837828
220
0.0
230
-1.0
100
AcDbArc
 50
-44.99999999996825295057
 51
44.99999999996825295057
  0
ARC
  5
27C
100
AcDbEntity
100
AcDbCircle
 10
-10.77327687476538642386
 20
1.73278914241197878887
 30
3.50000000000031041836
 40
0.00849999999999531339
210
0.0
220
0.00000000000017837828
230
-1.0
100
AcDbArc
 50
44.99999999997248778527
 51
135.00000000004024514055
  0
ARC
  5
27D
100
AcDbEntity
100
AcDbCircle
 10
-10.7732768747653437913
 20
1.7327891424125683173
 30
3.5
 40
0.00850000000005054872
210
0.0
220
0.0
230
-1.0
100
AcDbArc
 50
135.00000000007725020623
 51
151.88431489873909185917
  0
LINE
  5
27E
100
AcDbEntity
100
AcDbLine
 10
10.6672108575874062808
 20
1.62672312523461548572
 30
-3.5
 11
10.64599765415180954164
 21
1.64793632867020889421
 31
-3.5
  0
LINE
  5
27F
100
AcDbEntity
100
AcDbLine
 10
10.6672108575874062808
 20
1.62672312523461548572
 30
-3.5
 11
10.64599765415180954164
 21
1.60550992179901674817
 31
-3.5
  0
LINE
  5
280
100
AcDbEntity
100
AcDbLine
 10
10.6672108575874062808
 20
1.62672312523461548572
 30
-3.5
 11
10.68842406102300301995
 21
1.60550992179901808043
 31
-3.5
  0
LINE
  5
281
100
AcDbEntity
100
AcDbLine
 10
10.6672108575874062808
 20
1.62672312523461548572
 30
-3.5
 11
10.68842406102299946724
 21
1.64793632867021266897
 31
-3.5
  0
ARC
  5
282
100
AcDbEntity
100
AcDbCircle
 10
10.6672108575874062808
 20
1.6267231252346228132
 30
-3.5
 40
0.00850000000000646593
100
AcDbArc
 50
-118.1156851012039936677
 51
-45.00000000003069544618
  0
ARC
  5
283
100
AcDbEntity
100
AcDbCircle
 10
10.66721085758739739902
 20
1.62672312523461459755
 30
-3.5
 40
0.00850000000000671919
100
AcDbArc
 50
-44.99999999994920329982
 51
44.99999999996506971911
  0
ARC
  5
284
100
AcDbEntity
100
AcDbCircle
 10
10.66721085758740450444
 20
1.62672312523461282119
 30
-3.49999999999999866773
 40
0.00850000000000193136
100
AcDbArc
 50
45.00000000000741096073
 51
134.99999999998624389264
  0
ARC
  5
285
100
AcDbEntity
100
AcDbCircle
 10
10.66721085758740095173
 20
1.6267231252346163739
 30
-3.50000000000000133227
 40
0.00849999999999631085
100
AcDbArc
 50
134.99999999998627231435
 51
225.00000000003282707439
  0
ARC
  5
286
100
AcDbEntity
100
AcDbCircle
 10
10.66721085758747022965
 20
1.62672312523469941858
 30
-3.5
 40
0.00850000000010425229
100
AcDbArc
 50
-134.99999999990157562024
 51
-118.1156851013408441986
  0
ENDSEC
  0
SECTION
  2
OBJECTS
  0
DICTIONARY
  5
5E
100
AcDbDictionary
  3
ACAD_GROUP
350
5C
  3
ACAD_MLINESTYLE
350
5D
  0
DICTIONARY
  5
5C
100
AcDbDictionary
  0
DICTIONARY
  5
5D
100
AcDbDictionary
  3
STANDARD
350
5B
  0
MLINESTYLE
  5
5B
100
AcDbMlineStyle
  2
STANDARD
 70
   0
  3

 71
   2
 49
0.5
 62
 256
 49
-0.5
 62
 256
  0
ENDSEC
  0
EOF
